tablaturas, partituras y acordes para guitarra
Busca por banda/artista:
 
y/o título de la canción:
A B C D E F G H I J K L M N O P Q R S T U V W X Y Z 0 1 2 3 4 5 6 7 8 9 / Top 100 tabs
Categorías
Usuarios
usuario:
Darse de alta
password:
Artistas más visitados
Publicidad
TOP acordes y tablaturas de Demon hunter


Infected
de Demon hunter
Puntúa este acorde/tab:      
(0.2/5)
Reportar este acorde/tab
  Añadir a tus favoritos
  Imprimir
Intro:
---------------------------|
---------------------------|
---------------------------|
---------------------------|
8----8----8----8-----------|
8----8----8----8----3-0--|

Verse:
-------------------------------|
-------------------------------|
-------------------------------|
8------------------------------|
x------------------------------|
8--0--1--0--1--3--1--0---------|

Pre-Chorus:
--------------------------------------------------------------|
--------------------------------------------------------------|
--------------------------------------------------------------|
------------------------------5-5-5-5-5-5-5-5-5-5-5-5-5-5-5-5-|
6-6-6-6-6-6-6-6-6-6-6-6-1-1-1-5-5-5-5-5-5-5-5-5-5-5-5-5-5-5-5-|
6-6-6-6-6-6-6-6-6-6-6-6-1-1-1-0-0-0-0-0-0-0-0-0-0-0-0-0-0-0-0-|

Chorus:                                       (wah effect..............
--------------------------------------------------------------------------------------|
--------------------------------------------------------------------------------------|
-----------------------------------------------6-6-6-6-6-6-6-6-6-6-6-6----------------|
---------8----------------------8--------------6-6-6-6-6-6-6-6-6-6-6-6----------------|
----6--------6------6-------6--------6-----6---4-4-4-4-4-4-4-4-4-4-4-4----------------|
6----------------6-------6--------------6---------------------------------------------|

Bridge A:  (let ring through out)
---------------------------------------|
---------------------------------------|
-----------------2---------------------|
1-----------------------2--------------|
1-------------------------------3------|
1--------------------------------------|

Bridge B:
-----------------------------------------------|
-----------------------------------------------|
------------------------2----------------------|
-------------------------------2---------------|
1-----1--1---1----------------------3----------|
1-----1--1---1---------------------------------|		   
AcordesyTabs.com © 2008 Acordes y Tablaturas para guitarra. Tabs and Chords for guitar. Aviso Legal - Contacto
El uso de este sitio está sujeto a la aceptación de los términos y condiciones (73 usuarios online)