tablaturas, partituras y acordes para guitarra
Busca por banda/artista:
 
y/o título de la canción:
A B C D E F G H I J K L M N O P Q R S T U V W X Y Z 0 1 2 3 4 5 6 7 8 9 / Top 100 tabs
Categorías
Usuarios
usuario:
Darse de alta
password:
Artistas más visitados
Publicidad
TOP acordes y tablaturas de Kiss
:: Beth - Kiss


Estás en: Inicio > Letra K > Acordes y tablaturas de Kiss > Childhood's end
Childhood's end
de Kiss
Puntúa este acorde/tab:      
(0.6/5)
Reportar este acorde/tab
  Añadir a tus favoritos
  Imprimir
Gb|-----------------------|----------------------|--------------------6b^-|
Db|-----------------------|----------------------|------------------------|
Ab|------7---------2--3--|----3-----3--3-----2--|------2-----------------|
Eb|--0--------0--4--------|--------3-------3-----|---2-------4--5--7------|
Bb|-----------------------|----------------------|------------------------|


                                                                         
Gb|----6r----4b^--4r-----|------------------------|-----------------------|
Db|-------7----------5---|------------------------|-----------------------|
Ab|----------------------|-------7---------2--3--|----------3--3-----2---|
Eb|----------------------|--0---------0--4--------|--------3-------3------|
Bb|----------------------|------------------------|-----------------------|


                                                                       
Gb|--------2h^4-----------6b^|----6r----4b^--4r------|--------------------|
Db|---2h^4-------------------|-------7----------5----|--------------------|
Ab|--------------------------|-----------------------|--------------------|
Eb|--------------4--5--7-----|-----------------------|--0-----------------|
Bb|--------------------------|-----------------------|--------------------|


                                                                            
Gb|-----------------|-----------------|-----------------|-----------------|
Db|-----------------|-----------------|-----------------|-----------------|
Ab|-----------------|-----------------|-----------------|-----------------|
Eb|-----------------|-----------------|-----------------|-----------------|
Bb|-----------------|-----------------|-----------------|-----------------|


                                                                             
Gb|----------------|-------------------|----------------|-----------------|
Db|----------------|-------------------|----------------|-----------------|
Ab|----------------|--2----------------|----------------|-----------------|
Eb|----------------|-------------------|----------------|-----------------|
Bb|----------------|-------------------|----------------|-----------------|


                                                                                   
Gb|---------------|-------|-------------------------|---------------------|
Db|---------------|-------|-------------------------|---------------------|
Ab|--------2------|-------|-------2/7--------2--3--|---3-----3--3-----2--|
Eb|-2-------------|-------|--0----------0--4--------|-------3-------3-----|
Bb|---------------|-------|-------------------------|---------------------|


                                                                          
Gb|---------------------6b^|----6r----4b^--4r-----|-----------------------|
Db|------------------------|-------7----------5---|-----------------------|
Ab|-------2----------------|----------------------|------7---------2--3--|
Eb|----2-------4--5--7-----|----------------------|-0---------0--4--------|
Bb|------------------------|----------------------|-----------------------|


                                                                            
Gb|---------------------|--------2h^4--------------|----------------------|
Db|---------------------|---2h^4-------------------|----------------------|
Ab|---------3--3-----2--|-----------------0--2--3--|---3--3--5----5--5--4-|
Eb|-------3-------3-----|--------------4-----------|----------------------|
Bb|---------------------|--------------------------|----------------------|


                                                                     
Gb|-----------2h^4--------|--2---1---------------|------------------------|
Db|------2h^4-------------|----------2-----------|------------------------|
Ab|--2--------------------|-----------------4b^--|--0------------12------|
Eb|-----------------------|----------------------|------------------------|
Bb|-----------------------|----------------------|------------------------|


Gb|---------------------|-----------2h^4--------|--2---1------------------|
Db|---------------------|------2h^4-------------|----------2--------------|
Ab|---------------------|--2--------------------|-----------------4b^-----|
Eb|--2----x--3----------|-----------------------|-------------------------|
Bb|---------------------|-----------------------|-------------------------|


                                                                      
Gb|-----------------------|--------------------|--------------------------|
Db|------2h^4p^2-----7---|--------------------|--------------------------|
Ab|--0--------------------|---------2----------|-------7---------2--3----|
Eb|-----------------------|--2-----------------|--0---------0--4----------|
Bb|-----------------------|--------------------|--------------------------|


                                                                           
Gb|-----------------------|--------2h^4-----------6b^|---6r----4b^--4r----|
Db|-----------------------|---2h^4-------------------|------7----------5--|
Ab|-----------3--3-----2--|--------------------------|--------------------|
Eb|---------3-------3-----|--------------4--5--7-----|--------------------|
Bb|-----------------------|--------------------------|--------------------|


                                                                            
Gb|-----------------------|--------------------|-------2h^4-----------6b^-|
Db|-----------------------|--------------------|--2h^4--------------------|
Ab|------7---------2--3--|--------3--3-----2--|--------------------------|
Eb|--0--------0--4--------|------3-------3-----|-------------4--5--7------|
Bb|-----------------------|--------------------|--------------------------|


                                                                         
Gb|----6r----4b^--4r------|------------------------|----------------------|
Db|-------7----------5----|------------------------|----------------------|
Ab|-----------------------|-------7---------2--3--|-----------3--3-----2-|
Eb|-----------------------|--0---------0--4--------|---------3-------3----|
Bb|-----------------------|------------------------|----------------------|


                                                                              
Gb|-------2h^4-----------6b^|---6r----4b^--4r----|------------------------|
Db|--2h^4-------------------|------7----------5--|------------------------|
Ab|-------------------------|--------------------|------------------------|
Eb|-------------4--5--7-----|--------------------|------------------------|
Bb|-------------------------|--------------------|-3--3--3--3--3--3--3--3-|


                                                      
Gb|-----------------------------------|-------------------7---7---7---7---|
Db|-----------------------------------|-----------------------------------|
Ab|-----------------------------------|---5---5---5---5/------------------|
Eb|-----------------------------------|-----------------------------------|
Bb|---3---3---3---3---3---3---3---3---|-----------------------------------|


                                                                                



Gb|-7-(b9)(b9)-(b9)-(b9)-10-12-12-12-13--13-|-14--14--14--14-|--------------------|
Db|---------------------------------|----------------|--------------------|
Ab|---------------------------------|----------------|-----7--------2--3-|
Eb|---------------------------------|----------------|-0-------0--4-------|
Bb|---------------------------------|----------------|--------------------|


                                                                    
Gb|-----------------------|--------2h^4/----------|-----------------------|
Db|-----------------------|---2h^4----------------|-----------------------|
Ab|-----------3--3-----2--|-----------------------|-----------------------|
Eb|---------3-------3-----|--------------------5--|--------3/-------------|
Bb|-----------------------|-----------------------|-----------------------|


                                                                            
Gb|------------------------|--------------------|-------2h^4--------------|
Db|------------------------|--------------------|--2h^4-------------------|
Ab|-------7---------2--3--|--------3--3-----2--|----------------0--2-2b^-|
Eb|--0---------0--4--------|------3-------3-----|-------------4-----------|
Bb|------------------------|--------------------|-------------------------|


                                                                              
Gb|--------------------------|-----------------------|--------------------|
Db|--------------------------|-----------------------|--------------------|
Ab|--2-2----4b^--4-4-5-4-5-4-|-------7---------2--3-|--------3--2-----2--|
Eb|------3-------------------|--0---------0--4-------|------3-------3-----|
Bb|--------------------------|-----------------------|--------------------|


                                                                             
Gb|--------2h^4-------------|----------------------|----------------------|
Db|---2h^4------------------|----------------------|----------------------|
Ab|-----------------0--2--3-|--2-----5----4--5--4--|-----7---------2--3--|
Eb|--------------4----------|-----3----------------|-0--------0--4--------|
Bb|-------------------------|----------------------|----------------------|


                                                                            
Gb|----------------------|-------2h^4--------------|----------------------|
Db|----------------------|--2h^4-------------------|----------------------|
Ab|----------3--5--3--2--|----------------0--2--3--|--2-----5----4--5--4--|
Eb|--------3-------------|-------------4-----------|-----3----------------|
Bb|----------------------|-------------------------|----------------------|


                                                                             
Gb|----------------------|-------3h5^--5/-7--5--4--|------------------6b^-|
Db|----------------------|--3h^5-------------------|--4-------------------|
Ab|-----7---------2--3--|-------------------------|-----2----------------|
Eb|-0--------0--4--------|-------------------------|---------4--5--7------|
Bb|----------------------|-------------------------|----------------------|


                                                                            
Gb|----6r----4b^--4r-----|------------------------|------3h^5--5/-7--5--4-|
Db|-------7----------5---|------------------------|-3h^5------------------|
Ab|----------------------|-------7---------2--3--|-----------------------|
Eb|----------------------|--0---------0--4--------|-----------------------|
Bb|----------------------|------------------------|-----------------------|

                                                                                    
Gb|---4---4--2-------|---------------------|--------7h^(b9)(b9)(b9)(b9)(b9)(b9)(b9)9/12-|
Db|-4-----------4----|---------------------|------------------------------|
Ab|----------------3-|----3--3/-5----------|-7--7-7-----------------------|
Eb|------------------|-3-------------------|------------------------------|
Bb|------------------|-------------2--3--4-|------------------------------|


                                                                       
Gb|----------7h^(b9)(b9)(b9)(b9)(b9)(b9)(b9)9/12-|-----------9/11-11-11-11-11-11-9/12--|
Db|--------------------------------|--------------------------------------|
Ab|--7--7--------------------------|--7--7--7-----------------------------|
Eb|--------0-----------------------|--------------------------------------|
Bb|--------------------------------|--------------------------------------|


                                                                         
Gb|--12-12-12-12-12-9/14-14-14-14-14/16---|----------7(b9)(b9)(b9)(b9)(b9)(b9)(b9)9-|
Db|-----------------------------------------|-----------------------------|
Ab|-----------------------------------------|-7--7--7---------------------|
Eb|-----------------------------------------|-----------------------------|
Bb|-----------------------------------------|-----------------------------|


                                                                  
Gb|-----------7(b9)(b9)(b9)(b9)(b9)(b9)(b9)9---|-----------9/11-11-11-11-11-0--6b^----|
Db|--------------------------------|--------------------------------------|
Ab|---7-7--7-----------------------|---7-7--7-----------------------------|
Eb|--------------------------------|--------------------------------------|
Bb|--------------------------------|--------------------------------------|


                                                                                  
Gb|--6r----4b^--4r---|-------7h^(b9)(b9)(b9)(b9)-(b9)-(b9)-|-(b9)------7h^(b9)(b9)(b9)(b9)-(b9)-(b9)|
Db|-----7----------5-|-------------------------|--------------------------|
Ab|------------------|----7------------------7-|---7--7-------------------|
Eb|------------------|-0-----------------------|--------------------------|
Bb|------------------|-------------------------|--------------------------|


                                                                           
Gb|---------9/11-11-11-11--11--9/12-|-12-12-12--12--11/14-14--14--16--16--|
Db|---------------------------------|-------------------------------------|
Ab|---7--7--------------------------|-------------------------------------|
Eb|---------------------------------|-------------------------------------|
Bb|---------------------------------|-------------------------------------|		   
AcordesyTabs.com © 2008 Acordes y Tablaturas para guitarra. Tabs and Chords for guitar. Aviso Legal - Contacto
El uso de este sitio está sujeto a la aceptación de los términos y condiciones (25 usuarios online)