tablaturas, partituras y acordes para guitarra
Busca por banda/artista:
 
y/o título de la canción:
A B C D E F G H I J K L M N O P Q R S T U V W X Y Z 0 1 2 3 4 5 6 7 8 9 / Top 100 tabs
Categorías
Usuarios
usuario:
Darse de alta
password:
Artistas más visitados
Publicidad
TOP acordes y tablaturas de Kiss
:: Beth - Kiss


Estás en: Inicio > Letra K > Acordes y tablaturas de Kiss > In my head
In my head
de Kiss
Puntúa este acorde/tab:      
(0.7/5)
Reportar este acorde/tab
  Añadir a tus favoritos
  Imprimir
Rhythm Fig. 1
                                             
Gb|---------------------------------------------------|
Db|---------------------------------------------------|
Ab|---------------------------------------------------|
Db|--2-----------(2)/----0----------------------------|
   < - - - - - - - 2x - - - - - - - >

                                       
Gb|---------------------------------------------------|
Db|---------------------------------------------------|
Ab|---------------------------------------------------|
Db|--2------------------------------------------------|



Rhythm Fig. 2
                                                
Gb|---------------------------------------------------|
Db|---------------------------------------------------|
Ab|---------------------------------------------------|
Db|--0----0----0----0----0----0----0---0-3--0---------|


                                                   
Gb|---------------------------------------------------|
Db|---------------------------------------------------|
Ab|---------------------------------------------------|
Db|--0----0----0---0-3--0--0----0---0-3--0--3--0------|



Rhythm Fig. 3
                                                   
Gb|---------------------------------------------------|
Db|---------------------------------------------------|
Ab|---------------------------------------------------|
Db|--0----0----0---0-3--0--0----0---0-3--0--3--0------|



Rhythm Fig. 4
                                              
Gb|---------------------------------------------------|
Db|---------------------------------------------------|
Ab|---------------------------------------------------|
Db|--2----2----2----2----2----2----2----2/------------|


                                                
Gb|---------------------------------------------------|
Db|---------------------------------------------------|
Ab|---------------------------------------------------|
Db|--0----0----0---0-12---0----0----0----3/----------|


                                              
Gb|---------------------------------------------------|
Db|---------------------------------------------------|
Ab|---------------------------------------------------|
Db|--2----2----2----2----2----2----2----2/------------|


                                             
Gb|---------------------------------------------------|
Db|---------------------------------------------------|
Ab|---------------------------------------------------|
Db|--0----0----0----0----0----0----5------------------|



Rhythm Fig. 5
                                              
Gb|---------------------------------------------------|
Db|---------------------------------------------------|
Ab|---------------------------------------------------|
Db|--2----2----2----2----2----2----2----2/------------|


                                               
Gb|---------------------------------------------------|
Db|---------------------------------------------------|
Ab|-------------------------------------12-----------|
Db|--0----0----0----3/---0----0----0------------------|


                                               
Gb|---------------------------------------------------|
Db|---------------------------------------------------|
Ab|---------------------------------------------------|
Db|--2----2----2----2----2----2----2/---14-----------|


                                           
Gb|---------------------------------------------------|
Db|---------------------------------------------------|
Ab|-------5----5/---19-------------------------------|
Db|--0------------------------------------------------|




Rhythm Fig. 6
                                                         
Gb|---------------------------------------------------|
Db|---------------------------------------------------|
Ab|-------5---------10--------------3--------5----5/-|
Db|--0---------0----------5/---17--------------------|


                                                         
Gb|---------------------------------------------------|
Db|---------------------------------------------------|
Ab|-------5---------10--------------3--------5----5--|
Db|--0---------0----------5/---17--------------------|


                                               
Gb|---------------------------------------------------|
Db|---------------------------------------------------|
Ab|--5-----------------------5---------10-----------|
Db|-------1-------/13---0---------0------------------|


                                                      
Gb|---------------------------------------------------|
Db|---------------------------------------------------|
Ab|-------------3--------5----5----5/-----------------|
Db|--5/---17---------------------------1-------------|




Rhythm Fig. 7
                                              
Gb|---------------------------------------------------|
Db|---------------------------------------------------|
Ab|-------------------------------------7------------|
Db|--2----2----2----2----2----2----2------------------|


                                               
Gb|---------------------------------------------------|
Db|---------------------------------------------------|
Ab|---------------------------------------------------|
Db|--0----0----0----3/---0----0----0----12-----------|


                                              
Gb|---------------------------------------------------|
Db|---------------------------------------------------|
Ab|-------------------------------------7------------|
Db|--2----2----2----2----2----2----2------------------|


                                                
Gb|---------------------------------------------------|
Db|---------------------------------------------------|
Ab|---------------------------------------------------|
Db|--0----0----0----3/---0----0----0---0-12----------|


                                              
Gb|---------------------------------------------------|
Db|---------------------------------------------------|
Ab|-------------------------------------7------------|
Db|--2----2----2----2----2----2----2------------------|


                                                
Gb|---------------------------------------------------|
Db|---------------------------------------------------|
Ab|----------------/17-----------------/17----------|
Db|--0----0----0----------0----0----0-----------------|


                                               
Gb|---------------------------------------------------|
Db|---------------------------------------------------|
Ab|---------------------------------------------------|
Db|--2----2----2----2----2----2----2---/14-----------|


                                                
Gb|---------------------------------------------------|
Db|---------------------------------------------------|
Ab|----------------/17-------------------------------|
Db|--0----0----0----------0----0----0----12----------|


                                              
Gb|---------------------------------------------------|
Db|---------------------------------------------------|
Ab|---------------------------------------------------|
Db|--2----2----2----2----2----2----3------------------|
    < - - - 5x - - - >



IN MY HEAD
Simmons, Van Zen, St. James

[Rhy. Fig 1]
[Rhy. Fig 2]

[Rhy. Fig 2] (3x)
I'm obnoxious and no one's home 
In my head, in my head 
Cardboard boxes filled with hate 
In my head, they're in my head 
Nest of termites, glowin' red 
In my head, they're in my head 

[Rhy. Fig 4] 
Look behind the mask 
Try to find peace of mind 
And you'll find 
Just look behind the man 
And lead me by the hand 

[Rhy. Fig 3]

[Rhy. Fig 2] (3x)
Faded smiles behind dark shades 
In my head, in my head 
Plastic icons, glowin' red 
In my head, they're in my head 
I experiment with myself 
In my head, in my head 

[Rhy. Fig 5]
Look behind the glass 
Try to find peace of mind 
And you'll find 
Just look behind the man 
And lead me 

[Rhy. Fig 6]
Aaaaahhhaaaaaahaaaa 
Aaaaahhhaaaaaahaaaa 

[Rhy. Fig 2] (2x)

[Rhy. Fig 7]
Look behind the glass 
Try to find peace of mind 
And you'll find 
Just look behind the man 
And lead me
Look behind the man 
Look behind the glass 
Look behind the mask		   
AcordesyTabs.com © 2008 Acordes y Tablaturas para guitarra. Tabs and Chords for guitar. Aviso Legal - Contacto
El uso de este sitio está sujeto a la aceptación de los términos y condiciones (73 usuarios online)