tablaturas, partituras y acordes para guitarra
Busca por banda/artista:
 
y/o título de la canción:
A B C D E F G H I J K L M N O P Q R S T U V W X Y Z 0 1 2 3 4 5 6 7 8 9 / Top 100 tabs
Categorías
Usuarios
usuario:
Darse de alta
password:
Artistas más visitados
Publicidad
TOP acordes y tablaturas de Kiss
:: Beth - Kiss


Estás en: Inicio > Letra K > Acordes y tablaturas de Kiss > In the mirror
In the mirror
de Kiss
Puntúa este acorde/tab:      
(0.2/5)
Reportar este acorde/tab
  Añadir a tus favoritos
  Imprimir
Rhythm Fig. 1a
                                                                   
Gb|---------------------------------------------------|
Db|---------------------------------------------------|
Ab|---------3-----------------------------------------|
Db|--0-----------3h5--5-3----5--3--0------------------|



Rhythm Fig. 1b
                                                               
Gb|---------------------------------------------------|
Db|---------------------------------------------------|
Ab|--5------3-----------------------------------------|
Db|--------------3h5--5-3----5--3--0------------------|




Rhythm Fig. 1c
                                                              
Gb|---------------------------------------------------|
Db|---------------------------------------------------|
Ab|--5------3-----------------------------------------|
Db|--------------3h5--5-3----4--5---------------------|



Rhythm Fig. 1d
                                                              
Gb|---------------------------------------------------|
Db|---------------------------------------------------|
Ab|--5------3-----------------------------------------|
Db|--------------3h5--5-3----2--1~--------------------|




Rhythm Fig. 2
                                                                  
Gb|--10h12-12-12-12p10--------------------------------|
Db|---------------------------------------------------|
Ab|---------------------------------------------------|
Db|---------------------------------------------------|



Rhythm Fig. 3
                                                     
Gb|---------------------------------3------2----2-----|
Db|---------------------------------------------------|
Ab|---------------3----3----1------------------------|
Db|--0------------------------------------------------|


                                                       
Gb|---------------------------------------------------|
Db|---------5-----------3-----------2-----------------|
Ab|---------------------------------------------------|
Db|--5-------------3---------2-------------1----2p-1--|


                                                     
Gb|---------------------------------------------2-----|
Db|---------------------------------------------------|
Ab|---------------3----3----1------1------0----------|
Db|--0------------------------------------------------|


                                                      
Gb|---------------------------------------------------|
Db|---------5-----------3-----------2-----------------|
Ab|---------------------------------------------------|
Db|--5-------------3---------2-------------1----1-----|





Rhythm Fig. 4
                                              
Gb|---------------------------------------------------|
Db|---------------------------------------------------|
Ab|------------------------3----0--3--4--5------------|
Db|--3------4------5----------------------------------|




End 1
                                             
Gb|---------------------------------------------------|
Db|---------------------------------------------------|
Ab|------------------------3----0--3----5-------------|
Db|--3------4------5----------------------------------|




End 2
                                                 
Gb|---------------------------------------------------|
Db|---------------------------------------------------|
Ab|---------------------------3----0--3--4--5---------|
Db|--3----0--4----0--5-----0--------------------------|




Rhythm Fig. 5
                                               
Gb|---------------------------------------------------|
Db|---------------------------------------------------|
Ab|---------------------------------------------------|
Db|--0------------------------------------------------|


                                                          
Gb|--------------------------------12p-11-------------|
Db|----------------------------------------12---------|
Ab|--------------------------------------------12----|
Db|-----------3/-5--5----0----------------------------|


                                                        
Gb|---------------------5----------------------------|
Db|--------12----------------------------------------|
Ab|----------------3----------------------------------|
Db|--0-----------------------3------3------3/-5--5----|


                                              
Gb|---------------------------------------------------|
Db|---------------------------------------------------|
Ab|---------------------------------------------------|
Db|--3------3------1----1-----------------------------|




Rhythm Fig. 6
                                                            
Gb|---------------------------------------------------|
Db|---------------------------------------------------|
Ab|---------------------------------------------------|
Db|--3------4------5----------------------------------|


                                          
Gb|---------------------------------------------------|
Db|---------------------------------------------------|
Ab|--3------4------5----------------------------------|
Db|---------------------------------------------------|






IN THE MIRROR
Stanley, Kulick, Cuomo

[Intro: Guitar only]
[Rhy. Fig 1a]
[Rhy. Fig 1b] (3x)
[Rhy. Fig 2]

[Rhy. Fig 1b] (7x)
You were in the right 
Until you're left stuck in the middle 
I still wonder why 
You gave it all for such a little 
[Rhy. Fig 1c]

[Rhy. Fig 3]
You, tell me you're only 
Scared to be lonely 
On and on 
You, livin' on credit 
Want it, you get it 
Right or wrong 

[Rhy. Fig 4 w/ End 1]
You oughtta take a look in the mirror 
Every line's gettin' clearer 
[Rhy. Fig 4 w/ End 2]
See the face you can't deny 

[Rhy. Fig 1b] (4x)
You appear to me 
Appear to be lost in confusion 
[Rhy. Fig 2]
[Rhy. Fig 1b] (3x)
I don't wanna live 
Only to die in your illusion 
[Rhy. Fig 1c]

[Rhy. Fig 3]
You, dial information 
Station to station 
On and on 
You, lie to your lover 
Make him your cover 
Blindfold on 

[Rhy. Fig 4 w/ End 1]
You oughtta take a look in the mirror 
Every line's gettin' clearer 
[Rhy. Fig 4 w/ End 2]
See the face you can't deny 
[Rhy. Fig 4 w/ End 1]
Take a look in the mirror 
All your fear gettin' nearer 
[Rhy. Fig 4 w/ End 2]
Nothin' left to get you by 

[Rhy. Fig 5]
Only a matter of time 
Leavin' illusion behind 
Tick Tock 

[Rhy. Fig 6] (2x)
[Rhy. Fig 4 w/ End 1]
[Rhy. Fig 4 w/ End 2]
[Rhy. Fig 4 w/ End 1]
[Rhy. Fig 4 w/ End 2]

[Rhy. Fig 1a]
You won't realize 
[Rhy. Fig 1b] (6x)
'Till all the eyes are truly open 
You can't hide away 
Throw what you may, when all is broken
[Rhy. Fig 1d]

[Rhy. Fig 4 w/ End 1]
You oughtta take a look in the mirror 
Every line's gettin' clearer 
[Rhy. Fig 4 w/ End 2]
See the face you can't deny 
[Rhy. Fig 4 w/ End 1]
You oughtta take a look in the mirror 
All your fear gettin' nearer 
[Rhy. Fig 4 w/ End 2]
Nothin' left to get you by		   
AcordesyTabs.com © 2008 Acordes y Tablaturas para guitarra. Tabs and Chords for guitar. Aviso Legal - Contacto
El uso de este sitio está sujeto a la aceptación de los términos y condiciones (34 usuarios online)