tablaturas, partituras y acordes para guitarra
Busca por banda/artista:
 
y/o título de la canción:
A B C D E F G H I J K L M N O P Q R S T U V W X Y Z 0 1 2 3 4 5 6 7 8 9 / Top 100 tabs
Categorías
Usuarios
usuario:
Darse de alta
password:
Artistas más visitados
Publicidad
TOP acordes y tablaturas de Kiss
:: Beth - Kiss


Estás en: Inicio > Letra K > Acordes y tablaturas de Kiss > Heart of chrome
Heart of chrome
de Kiss
Puntúa este acorde/tab:      
(0.5/5)
Reportar este acorde/tab
  Añadir a tus favoritos
  Imprimir
Rhythm Fig. 1
                                                          
Gb|---------------------------------------------------------|
Db|---------------------------------------------------------|
Ab|--0-0-2-2-3-0-0-----------0-0-2-2-3-0-0------12---------|
Eb|---------------------------------------------------------|


                                                     
Gb|---------------------------------------------------------|
Db|---------------------------------------------------------|
Ab|--0-0-2-2-3-0-0-----------0-0-2-2-3-0-0------------------|
Eb|---------------------------------------------5/----------|



Rhythm Fig. 2a
                                                  
Gb|---------------------------------------------------------|
Db|---------------------------------------------------------|
Ab|---------------------------------------------------------|
Eb|--5----5----5---5-5--3---5----5----5--0--2--3------------|


                                                
Gb|---------------------------------------------------------|
Db|---------------------------------------------------------|
Ab|-----------------------------------3----2----------------|
Eb|--5----5----5--0--2--3---5----5--------------------------|




Rhythm Fig. 2b
                                                  
Gb|---------------------------------------------------------|
Db|---------------------------------------------------------|
Ab|---------------------------------------------------------|
Eb|--5----5----5---5-5--3---5----5----5--0--2--3------------|


                                                 
Gb|---------------------------------------------------------|
Db|---------------------------------------------------------|
Ab|-----------------------------------3----5/-7-------------|
Eb|--5----5----5--0--2--3---5----5--------------------------|




Rhythm Fig. 2c
                                                  
Gb|---------------------------------------------------------|
Db|---------------------------------------------------------|
Ab|---------------------------------------------------------|
Eb|--5----5----5---5-5--3---5----5----5--0--2--3------------|


                                                
Gb|---------------------------------------------------------|
Db|----------------------------------------5----------------|
Ab|----------------------------------/7---------------------|
Eb|--5----5----5--0--2--3---5----5--------------------------|




Rhythm Fig. 3
                                                        
Gb|---------------------------------------------------------|
Db|---------------------------------------------------------|
Ab|--------(b9)----10-----10---------------------5-----5------|
Eb|--0--0-----0------0------0---0--0--0--0-/7-----7---------|


                                                   
Gb|---------------------------------------------------------|
Db|---------------------------------------------------------|
Ab|--------(b9)----10-----10-----------5----------------------|
Eb|--0--0-----0------0------10----------5-------------------|


                                                        
Gb|---------------------------------------------------------|
Db|---------------------------------------------------------|
Ab|--------(b9)----10-----10---------------------5-----5------|
Eb|--0--0-----0------0------0---0--0--2--0-/7-----7---------|


                                                     
Gb|---------------------------------------------------------|
Db|---------------------------------------------------------|
Ab|--------(b9)----10-----10-----------5----------------------|
Eb|--0--0-----0------0------10----------5------3--2---------|



End 1
                                                        
Gb|---------------------------------------------------------|
Db|---------------------------------------------------------|
Ab|--------(b9)----10-----10---------------------5-----5------|
Eb|--0--0-----0------0------0---0--0--2--0--7-----7---------|


                                                    
Gb|---------------------------------------------------------|
Db|---------------------------------------------------------|
Ab|--------(b9)----10-----10----------------------------------|
Eb|--0--0-----0------0------10-------10--8------------------|



End 2
                                                            
Gb|---------------------------------------------------------|
Db|---------------------------------------------------------|
Ab|--------(b9)----10-----10------------10-----12-----12------|
Eb|--0--0-----0------0------0---0--0------0------0------12--|


                                                    
Gb|---------------------------------------------------------|
Db|---------------------------------------------------------|
Ab|--------(b9)----10-----10----------------------------------|
Eb|--0--0-----0------0------10-------10--8------------------|



Rhythm Fig. 4
                                                      
Gb|---------------------------------------------------------|
Db|---------------------------------(b9)--------(b9)------------|
Ab|---------------------------------------------------------|
Eb|--7-7-7-7---7-7-7-7--------7-7-7-----7-7-7---------------|
     < - - - 3x - - - >


Rhythm Fig. 5
                                         
Gb|---------------------------------------------------------|
Db|---------------------------------------------------------|
Ab|---------------------------------------------------------|
Eb|--0------------0-----0-----------------------------------|


                                            
Gb|---------------------------------------------------------|
Db|---------------------------------------------------------|
Ab|--------------/7-----------------------------------------|
Eb|--0--------------0----0--------3----5--------------------|


                                                          
Gb|---9p7------------------------9p7------------------------|
Db|-------(b9)8-7-5--5--7-5--7--5------(b9)8-7-5--5--7-5--------|
Ab|---------------------------------------------------------|
Eb|---------------------------------------------------------|


                                                             
Gb|---9p7-------------------------------------7-8-(b9)--------|
Db|-------(b9)8-7-5--5--7-5--7--5--------7-(b9)10---------------|
Ab|-----------------------------7-(b9)10-----------------0----|
Eb|---------------------------------------------------------|



Rhythm Fig. 6
                                                             
Gb|---------------------------------------------------------|
Db|---------------------------------------------------------|
Ab|--5--5-5-5--5-5-5--5-5-5--5-5-5--5-5-5--5-5-5--5-5-5--3--|
Eb|---------------------------------------------------------|


                                                           
Gb|---------------------------------------------------------|
Db|---------------------------------------------------------|
Ab|--5--5-5-5--5-5-5--5-5-5--5-5--5--5-5-5--5-5-8---7---5---|
Eb|---------------------------------------------------------|


                                                          
Gb|---------------------------------------------------------|
Db|---------------------------------------------------------|
Ab|-----------3--5--5-5-5--3---5--5-5-5--5-5-5--5-5-5--6----|
Eb|--1--3--5------------------------------------------------|


                                                          
Gb|---------------------------------------------------------|
Db|---------------------------------------------------------|
Ab|--5--5-5-5--5-5-5--5-5-5--5-5--5--5-5-5--5-5-------------|
Eb|---------------------------------------------1----3------|


 
Rhythm Fig. 7
                                                    
Gb|---------------------------------------------------------|
Db|---------------------------------------------------------|
Ab|--0---0-2---2-3---3-2------0---0-2---2-3---3-2-----------|
Eb|---------------------------------------------------------|


                                                   
Gb|---------------------------------------------------------|
Db|---------------------------------------------------------|
Ab|--0---0-2---2-3---3-5--/7--------------------------------|
Eb|---------------------------0---0-1---1-3-----------------|



Rhythm Fig. 8
                                                      
Gb|---------------------------------------------------------|
Db|---------------------------------------------------------|
Ab|--7-7-7-7---7-7-7-7--------------------------------------|
Eb|---------------------------0-0-0-0---0-0-0-0-------------|
    < - - - 2x - - - - >    < - - - 2x - - - - >



Rhythm Fig. 9
                                            
Gb|---------------------------------------------------------|
Db|-------------------------------------5-------------------|
Ab|--3-5-----------------3-5-------7------------------------|
Eb|---------------------------------------------------------|


                                                 
Gb|---------------------------------------------------------|
Db|----------------------0-1-0---0--------------------------|
Ab|--3-5-----------------------3---3-0-0--------------------|
Eb|---------------------------------------------------------|




HEART OF CHROME
Stanley, Vincent, Ezrin

[Rhy. Fig 1]
[Rhy. Fig 2a]
[Rhy. Fig 2b]

[Rhy. Fig 3 w/ End 1]
You better listen up, since you screwed me you¥ve been on my mind
Yeah, til the day we met...I was cruisin, I was doing fine
But now my world¥s gone crazy and I think about you all the time

[Rhy. Fig 4]
I¥m gonna tell it to you baby
It ain¥t like it was
There¥ll be no ifs, ands or maybes
Only justice because...

[Rhy. Fig 2a]
Hey, baby
(I...got an angry soul - I got a broken home)
I¥m gonna stick it in your heart of chrome
(I got no self-control - you gotta a heart of chrome)
[Rhy. Fig 2b]
Yeah, sugar
(And now you¥re gonna see - that since you messed with me)
I¥m gonna stick it in your heart of chrome
(You¥ll pay eternally - for your heart of chrome)
Your heart of chrome

[Rhy. Fig 3 w/ End 1]
Yeah, you really made a fool out of me
Everybody knew you used me, but I was just too blind to see
You taped our sexy conversations and you sold them to the BBC

[Rhy. Fig 4]
You told me people can¥t be trusted
You gotta watch the things they do
But if you still believe in justice
I¥m gonna give it to you...give it to you, ooh

[Rhy. Fig 2a]
Hey, baby
(I...got an angry soul - I got a broken home)
I¥m gonna stick it in your heart of chrome
(I got no self-control - you gotta a heart of chrome)
[Rhy. Fig 2b]
Yeah, sugar
(And now you¥re gonna see - that since you messed with me)
I¥m gonna stick it in your heart of chrome
(You¥ll pay eternally - for your heart of chrome)
Your heart of chrome

[Rhy. Fig 5]
[Rhy. Fig 6]

[Rhy. Fig 7]
You told me lies about all that you feel
I realize now that nothing was real
You took everything you could beg, borrow, steal

[Rhy. Fig 8]

[Rhy. Fig 2a]
Hey, baby
(I...got an angry soul - I got a broken home)
I¥m gonna stick it in your heart of chrome
(I got no self-control - you gotta a heart of chrome)
[Rhy. Fig 2c]
Yeah, sugar
(And now you¥re gonna see - that since you messed with me)
I¥m gonna stick it in your heart of chrome
(You¥ll pay eternally - for your heart of chrome)
Your heart of chrome

[Rhy. Fig 9]		   
AcordesyTabs.com © 2008 Acordes y Tablaturas para guitarra. Tabs and Chords for guitar. Aviso Legal - Contacto
El uso de este sitio está sujeto a la aceptación de los términos y condiciones (23 usuarios online)