tablaturas, partituras y acordes para guitarra
Busca por banda/artista:
 
y/o título de la canción:
A B C D E F G H I J K L M N O P Q R S T U V W X Y Z 0 1 2 3 4 5 6 7 8 9 / Top 100 tabs
Categorías
Usuarios
usuario:
Darse de alta
password:
Artistas más visitados
Publicidad
TOP acordes y tablaturas de Kiss
:: Beth - Kiss


Estás en: Inicio > Letra K > Acordes y tablaturas de Kiss > Carr jam 1981
Carr jam 1981
de Kiss
Puntúa este acorde/tab:      
(0.1/5)
Reportar este acorde/tab
  Añadir a tus favoritos
  Imprimir
Rhythm Fig. 1
                                                     
G|-------------------------------------------------|
D|-------------------------------------------------|
A|--5----------------7-----5----------------5------|
E|------0--0--0-0--------------0--0--0-0-----------|


                                                    
G|-------------------------------------------------|
D|-------------------------------------------------|
A|--5----------------7-----5------------------5----|
E|------0--0--0-0--------------0--0--0-0--5h7------|


                                                  
G|-------------------------------------------------|
D|-------------------------------------------------|
A|--5----------------7-----5----------------5------|
E|------0--0--0-0--------------0--0--0-0-----------|


                                                   
G|-------------------------------------------------|
D|----------------------------------------5--7-----|
A|--5----------------7-----5-----------------------|
E|------0--0--0-0--------------0--0--0-0-----------|


Rhythm Fig. 2
                                                  
G|-------------------------------------------------|
D|--4----------------4-----2---------------/6------|
A|-------------------------------------------------|
E|------2--2--2-2--------------2--2--2-2-----------|


                                                   
G|-------------------------------------------------|
D|--2----------------4-----2-----------------------|
A|----------------------------------------0--2-----|
E|------2--2--2-2--------------2--2--2-2-----------|


Rhythm Fig. 3
                                                  
G|-------------------------------------------------|
D|-------------------------------------------------|
A|--5----------------7-----5----------------5------|
E|------0--0--0-0--------------0--0--0-0-----------|


                                             
G|-------------------------------------------------|
D|-------------------------------------------------|
A|--5----------------7-----5-----------------------|
E|------0--0--0-0----------------------------------|


Rhythm Fig. 4
                                              
G|-------------------------------------------------|
D|------------------------------------4------------|
A|---------------7--------------------------------|
E|-------0--0--0--------------2--2--2--------------|


Rhythm Fig. 5
                                                  
G|-------------------------------------------------|
D|-------------------------------------------------|
A|--0----2----3-------0--3--5--7-------------------|
E|---------------------------------0--0--0-0-------|
   < - - 4x - - >






(One, two, three...)

[Rhy. Fig 1]
[Rhy. Fig 2]
[Rhy. Fig 3]
[Rhy. Fig 4] (2x)

[Drum solo]

[Rhy. Fig 5]		   
AcordesyTabs.com © 2008 Acordes y Tablaturas para guitarra. Tabs and Chords for guitar. Aviso Legal - Contacto
El uso de este sitio está sujeto a la aceptación de los términos y condiciones (31 usuarios online)