tablaturas, partituras y acordes para guitarra
Busca por banda/artista:
 
y/o título de la canción:
A B C D E F G H I J K L M N O P Q R S T U V W X Y Z 0 1 2 3 4 5 6 7 8 9 / Top 100 tabs
Categorías
Usuarios
usuario:
Darse de alta
password:
Artistas más visitados
Publicidad
TOP acordes y tablaturas de Elvenking


Trows kind
de Elvenking
Puntúa este acorde/tab:      
(0.3/5)
Reportar este acorde/tab
  Añadir a tus favoritos
  Imprimir
INTRO
--------------------------------------------------------------|
--------------------------------------------------------------|
--5--5-3-5---3-/-88-7--5--5-3-5---3----3-3-3-3--------|
--5--5-3-5-6-3-/-88-7--5--5-3-5-6-3----3-3-3-3-------|
--3--3-1-3-6-1-/-66-5--3--3-1-3-6-1----1-1-1-1-------|
-----------6-----66-5-----------6---------------------------|

RIFF 1  -  play 2 times
0 min 10 sec
-------------------------------------------------------------------------|
-------------------------------------------------------------------------|
--5--555555-5-35---3-/-88-7--55-555-555-555-5---------------|
--5--555555-5-35-6-3-/-88-7--55-555-555-555-5-6x6--1x0---|
--3--333333-3-13-6-1-/-66-5--33-333-333-333-3-6x6--1x0---|
-----------------6-----66-5-------------------6x6--1x0--------------|
     ******                  ** *** *** *** *

RIFF 2
0 min 30 sec
----------------------------------------------------------------------------------------------------------------------------------------------|
------------------------------------------------------------------------------------**-***-***-***-*------------------------------------------|
---------------5--3-5-----------------33-333--3---------------5--3-5----------------33-333-333-333-3--5--5555-------------------|
---------------5--3-5-----------------33-333--3---------------5--3-5----------------33-333-333-333-3--5--5555-------------------|
-33--5h6p5-3-1-3--1-3-------5h6p5-3-1-11-111--1/33--5h6p5-3-1-3--1-3~~----5h6p5-3-1-11-111-111-111-1--3--3333--|
-----------------------66---------------------------------------------66---------------------------------------------------------------------|
 **                    **             ** ***    **                    **

RIFF 3
0 min 45 sec
---------------------------------------------------------------------------------------------|
---------------------------------------------------------------------------------------------|
-5-555555------------------------3-33-333-33-----5----------10---5-6---------------|
-5-555555--6-66-666-66-1-111111--3-33-333-33-----5----6-----10---5-6-------|
-3-333333--6-66-666-66-1-111111--1-11-111-11-----3----6-----8----3-4--------|
-----------6-66-666-66-1-111111---------------00---00-6-000----0-----------------|
   ******    ** *** **   ******    ** *** **  **   **   ***    *

---------------------------------------------------------------------------------------------|
---------------------------------------------------------------------------------------------|
-5-555555------------------------3-33-333-33-----5----------10---6-5---------------|
-5-555555--6-66-666-66-1-111111--3-33-333-33-----5----6-----10---6-5-------|
-3-333333--6-66-666-66-1-111111--1-11-111-11-----3----6-----8----4-3-------|
-----------6-66-666-66-1-111111---------------00---00-6-000----0----------------|
   ******    ** *** **   ******    ** *** **  **   **   ***    *

PRE CHORUS
1 min 03 sec
--------------------------------------------------------------------------------------------------------------------|
---------------------------------------------------------------------------------------*-*-*------------------------|
------------------5--3-----3-------33---5-55--101010888775~~---12121213131388~~----3---3-3-3---|
--1--3------------5--3--6--3--6----33---5-55-------------5---------------------6---3---3-3-3---------------|
--1--3------------3--1--6--1--6----11---3-33-------------3---------------------6---1---1-1-1---------------|
--1--3--00-0-00---------6-----6------------------------------------------------6-------------------------------|
        ** * **

CHORUS
1 min 26 sec
-------------------------------------------------------------------------------------------------------------------|
-------------------------------------------------------------------------------------------------------------------|
-----3--5--3------3------5--3--------3--5--------3-3-3--5--3--------3-----3--5--3-------------------------|
--1--3--5--3--6---3------5--3--6--1--3--5--1--6--3-3-3--5--3--6--1--3--1--3--5--3--6-----------------|
--1--1--3--1--6---1------3--1--6--1--1--3--1--6--1-1-1--3--1--6--1--1--1--1--3--1--6----/6~~5~~---|
--1-----------6----------------6--1--------1--6---------------6--1-----1-----------6-------------------------|
                                                 * * *

RIFF 1
1 min 57 sec
-----------------------------------------------------------------------------------|
-----------------------------------------------------------------------------------|
--5--555555-5-35---3-/-88-7--55-555-555-555-5--------------17~~-----|
--5--555555-5-35-6-3-/-88-7--55-555-555-555-5-6x6--1x0------------|
--3--333333-3-13-6-1-/-66-5--33-333-333-333-3-6x6--1x0------------|
-----------------6----------------------------6x6--1x0-------------------------|
     ******                  ** *** *** *** *

RIFF 3
2 min 13 sec
------------------------------------|
------------------------------------|
----5-----------10---5-6---------|
----5----6------10---5-6---------|
----3----6------8----3-4---------|
-00---00-6--000----0-----------|
 **   **    ***    *

---------------------------------------------------------------------------------------------|
---------------------------------------------------------------------------------------------|
-5-555555------------------------3-33-333-33-----5----------10---6-5---------------|
-5-555555--6-66-666-66-1-111111--3-33-333-33-----5----6-----10---6-5-------|
-3-333333--6-66-666-66-1-111111--1-11-111-11-----3----6-----8----4-3-------|
-----------6-66-666-66-1-111111---------------00---00-6-000----0----------------|
   ******    ** *** **   ******    ** *** **  **   **   ***    *

PRE CHORUS
2 min 26 sec
-----------------------------------------------------------------------------------------------------------------------|
---------------------------------------------------------------------------------------*-*-*---------------------------|
------------------5--3-----3-------33---5-55--101010888775~~---12121213131388~~----3---3-3-3------|
--1--3------------5--3--6--3--6----33---5-55-------------5---------------------6---3---3-3-3------------------|
--1--3------------3--1--6--1--6----11---3-33-------------3---------------------6---1---1-1-1------------------|
--1--3--00-0-00---------6-----6------------------------------------------------6----------------------------------|
        ** * **

CHORUS
2 min 48 sec
-----------------------------------------------------------------------------------------------------------------|
-----------------------------------------------------------------------------------------------------------------|
-----3--5--3------3------5--3--------3--5--------3-3-3--5--3--------3-----3--5--3-----------------------|
--1--3--5--3--6---3------5--3--6--1--3--5--1--6--3-3-3--5--3--6--1--3--1--3--5--3--6---------------|
--1--1--3--1--6---1------3--1--6--1--1--3--1--6--1-1-1--3--1--6--1--1--1--1--3--1--6----/6~~5~~--|
--1-----------6----------------6--1--------1--6---------------6--1-----1-----------6------------------------|
                                                 * * *
INTRO BRIDGE
3 min 39 sec
------------------------------------|
------------------------------------|
---5-----5-5-----5-5-5-----------|
---5-----5-5-----5-5-5-----------|
---3-----3-3-----3-3-3-----------|
------------------------------------|

BRIDGE DURING SOLO  -  play 6 times
3 min 43 sec
------------------------------------------------------------------------------------------------|
-----------------------------------------------------6------------------------------------------|
---5---5---5-5---5---5-3---3---3-3---3---3-5-/-3-----5--------------------3---3---------|
---5---5---5-5---5---5-3---3---3-3---3---3-5-/-3-3-3-3--3-/-6---6---6-5---3---3------|
---3---3---3-3---3---3-1---1---1-1---1---1-3-/-1-3-3-3--3-/-6---6---6-5---1---1------|
-----0---0-----0---0-----0---0-----0---0---------3-3-3--3-/-6-0-6-0-6-5-0---0----------|
     *   *     *   *     *   *     *   *                      *   *     *   *

CHORUS
5 min 16 sec
------------------------------------------------------------------------------------------------------|
------------------------------------------------------------------------------------------------------|
--3-3-3----7--5--3-----5--7------3--5-5-5----7--5--3-----5-----5--7--5--3-------------------|
--3-3-3----7--5--3--3--5--7---3--3--5-5-5----7--5--3--3--5--3--5--7--5--3-----------------|
--1-1-1----5--3--1--3--3--5---3--1--3-3-3----5--3--1--3--3--3--3--5--3--1---/-8~~7------|
--------------------3---------3-----------------------3-----3---------------------------------------|
  * * *                             * * *
Riff 2
5 min 42 sec
-----------------------------------------------------------------------------------------------------------------------------------------------------|
-----------------------------------------------------------------------------------**-***-***-***-*--------------------------------------------------|
--------------5--3-5-----------------33-333--3---------------5--3-5----------------33-333-333-333-3--5-5-5-8-8-8-5--------------------|
--------------5--3-5-----------------33-333--3---------------5--3-5----------------33-333-333-333-3--5-5-5-8-8-8-5--------------------|
-33-5h6p5-3-1-3--1-3-------5h6p5-3-1-11-111--1/33--5h6p5-3-1-3--1-3~~----5h6p5-3-1-11-111-111-111-1--3-3-3-6-6-6-3---|
----------------------66---------------------------------------------66----------------------------------------------------------------------------|
 **                   **             ** ***    **                    **		   
AcordesyTabs.com © 2008 Acordes y Tablaturas para guitarra. Tabs and Chords for guitar. Aviso Legal - Contacto
El uso de este sitio está sujeto a la aceptación de los términos y condiciones (30 usuarios online)