tablaturas, partituras y acordes para guitarra
Busca por banda/artista:
 
y/o título de la canción:
A B C D E F G H I J K L M N O P Q R S T U V W X Y Z 0 1 2 3 4 5 6 7 8 9 / Top 100 tabs
Categorías
Usuarios
usuario:
Darse de alta
password:
Artistas más visitados
Publicidad
TOP acordes y tablaturas de Editors


Bullets
de Editors
Puntúa este acorde/tab:      
(0.7/5)
Reportar este acorde/tab
  Añadir a tus favoritos
  Imprimir
E  E  E  E  E  E  E  E  E  E  E  E  E  E  E  E   
G||--------------------------------------------------|
D||--------------------------------------------------|
A||--------------------------------------------------|
E||--7--7--7--(b9)-(b9)-(b9)-4--4--5--5--5--4--4--4--5--5--|

  E  E  E  E  E  E  E  E  E  E  E  E  E  E  E  E   
--------------------------------------------------|
--------------------------------------------------|
--------------------------------------------------|
--7--7--7--(b9)-(b9)-(b9)-4--4--5--5--5--4--4--4--5--5--|

  E  E  E  E  E  E  E  E  E  E  E  E  E  E  E  E   
--------------------------------------------------|
--------------------------------------------------|
--------------------------------------------------|
--7--7--7--(b9)-(b9)-(b9)-4--4--5--5--5--4--4--4--5--5--|

  E  E  E  E  E  E  E  E  E  E  E  E  E  E  E  E   
--------------------------------------------------|
--------------------------------------------------|
--------------------------------------------------|
--7--7--7--(b9)-(b9)-(b9)-4--4--5--5--5--4--4--4--5--5--|

  E  E  E  E  E  E  E  E  E  E  E  E  E  E  E  E   
--------------------------------------------------|
--------------------------------------------------|
--------------------------------------------------|
--7--7--7--7--7--7--7--7--4--4--4--4--4--4--4--4--|

  E  E  E  E  E  E  E  E  E  E  E  E  E  E  E  E   
--------------------------------------------------|
--------------------------------------------------|
--------------------------------------------------|
--5--5--5--5--5--5--5--5--5--5--5--5--5--5--5--5--|

  E  E  E  E  E  E  E  E  E  E  E  E  E  E  E  E   
--------------------------------------------------|
--------------------------------------------------|
--------------------------------------------------|
--7--7--7--7--7--7--7--7--4--4--4--4--4--4--4--4--|

  E  E  E  E  E  E  E  E  E  E  E  E  E  E  E  E   
--------------------------------------------------|
--------------------------------------------------|
--------------------------------------------------|
--5--5--5--5--5--5--5--5--5--5--5--5--5--5--5--5--|

  E  E  E  E  E  E  E  E  E  E  E  E  E  E  E  E   
--------------------------------------------------|
--------------------------------------------------|
--------------------------------------------------|
--7--7--7--7--7--7--7--7--4--4--4--4--4--4--4--4--|

  E  E  E  E  E  E  E  E  E  E  E  E  E  E  E  E   
--------------------------------------------------|
--------------------------------------------------|
--------------------------------------------------|
--5--5--5--5--5--5--5--5--5--5--5--5--5--5--5--5--|

  E  E  E  E  E  E  E  E  E  E  E  E  E  E  E  E   
--------------------------------------------------|
--------------------------------------------------|
--------------------------------------------------|
--7--7--7--7--7--7--7--7--4--4--4--4--4--4--4--4--|

  E  E  E  E  E  E  E  E  E  E  E  E  E  E  E  E   
--------------------------------------------------|
--------------------------------------------------|
--------------------------------------------------|
--5--5--5--5--5--5--5--5--5--5--5--5--5--5--5--5--|

  E  E  E  E  E  E  E  E  E  E  E  E  E  E  E  E   
--------------------------------------------------|
--------------------------------------------------|
--------------------------------------------------|
--7--7--7--(b9)-(b9)-(b9)-4--4--5--5--5--4--4--4--5--5--|

  E  E  E  E  E  E  E  E  E  E  E  E  E  E  E  E   
--------------------------------------------------|
--------------------------------------------------|
--------------------------------------------------|
--7--7--7--(b9)-(b9)-(b9)-4--4--5--5--5--4--4--4--5--5--|

  E  E  E  E  E  E  E  E  E  E  E  E  E  E  E  E   
--------------------------------------------------|
--------------------------------------------------|
--------------------------------------------------|
--7--7--7--(b9)-(b9)-(b9)-4--4--5--5--5--4--4--4--5--5--|

  E  E  E  E  E  E  E  E  E  E  E  E  E  E  E  E   
--------------------------------------------------|
--------------------------------------------------|
--------------------------------------------------|
--7--7--7--(b9)-(b9)-(b9)-4--4--5--5--5--4--4--4--5--5--|

  E  E  E  E  E  E  E  E  E  E  E  E  E  E  E  E   
--------------------------------------------------|
--------------------------------------------------|
--------------------------------------------------|
--7--7--7--7--7--7--7--7--4--4--4--4--4--4--4--4--|

  E  E  E  E  E  E  E  E  E  E  E  E  E  E  E  E   
--------------------------------------------------|
--------------------------------------------------|
--------------------------------------------------|
--5--5--5--5--5--5--5--5--5--5--5--5--5--5--5--5--|

  E  E  E  E  E  E  E  E  E  E  E  E  E  E  E  E   
--------------------------------------------------|
--------------------------------------------------|
--------------------------------------------------|
--7--7--7--7--7--7--7--7--4--4--4--4--4--4--4--4--|

  E  E  E  E  E  E  E  E  E  E  E  E  E  E  E  E   
--------------------------------------------------|
--------------------------------------------------|
--------------------------------------------------|
--5--5--5--5--5--5--5--5--5--5--5--5--5--5--5--5--|

  E  E  E  E  E  E  E  E  E  E  E  E  E  E  E  E   
--------------------------------------------------|
--------------------------------------------------|
--------------------------------------------------|
--7--7--7--7--7--7--7--7--4--4--4--4--4--4--4--4--|

  E  E  E  E  E  E  E  E  E  E  E  E  E  E  E  E   
--------------------------------------------------|
--------------------------------------------------|
--------------------------------------------------|
--5--5--5--5--5--5--5--5--5--5--5--5--5--5--5--5--|

  E  E  E  E  E  E  E  E  E  E  E  E  E  E  E  E   
--------------------------------------------------|
--------------------------------------------------|
--------------------------------------------------|
--7--7--7--7--7--7--7--7--4--4--4--4--4--4--4--4--|

  E  E  E  E  E  E  E  E  E  E  E  E  E  E  E  E   
--------------------------------------------------|
--------------------------------------------------|
--------------------------------------------------|
--5--5--5--5--5--5--5--5--5--5--5--5--5--5--5--5--|

  E  E  E  E  E  E  E  E  E  E  E  E  E  E  E  E   
--------------------------------------------------|
--------------------------------------------------|
--------------------------------------------------|
--7--7--7--(b9)-(b9)-(b9)-4--4--5--5--5--4--4--4--5--5--|

  E  E  E  E  E  E  E  E  E  E  E  E  E  E  E  E   
--------------------------------------------------|
--------------------------------------------------|
--------------------------------------------------|
--7--7--7--(b9)-(b9)-(b9)-4--4--5--5--5--4--4--4--5--5--|

  E  E  E  E  E  E  E  E  E  E  E  E  E  E  E  E   
--------------------------------------------------|
--------------------------------------------------|
--------------------------------------------------|
--7--7--7--(b9)-(b9)-(b9)-4--4--5--5--5--4--4--4--5--5--|

  E  E  E  E  E  E  E  E  E  E  E  E  E  E  E  E               
--------------------------------------------------|-----|-----|
--------------------------------------------------|-----|-----|
--------------------------------------------------|-----|-----|
--7--7--7--(b9)-(b9)-(b9)-4--4--5--5--5--4--4--4--5--5--|-----|-----|

  E  E  E  E  E  E  E  E  E  E  E  E  E  E  E  E   
--------------------------------------------------|
--------------------------------------------------|
--------------------7--7--------------------7--7--|
--4--4--4--5--5--5--------4--4--4--5--5--5--------|

  E  E  E  E  E  E  E  E  E  E  E  E  E  E  E  E   
--------------------------------------------------|
--------------------------------------------------|
--------------------7--7--------------------7--7--|
--4--4--4--5--5--5--------4--4--4--5--5--5--------|

  E  E  E  E  E  E  E  E  E  E  E  E  E  E  E  E   
--------------------------------------------------|
--------------------------------------------------|
--------------------7--7--------------------7--7--|
--4--4--4--5--5--5--------4--4--4--5--5--5--------|

  E  E  E  E  E  E  E  E  E  E  E  E  E  E  E  E   
--------------------------------------------------|
--------------------------------------------------|
--------------------7--7--------------------7--7--|
--4--4--4--5--5--5--------4--4--4--5--5--5--------|

  E  E  E  E  E  E  E  E  E  E  E  E  E  E  E  E   
--------------------------------------------------|
--------------------------------------------------|
--------------------------------------------------|
--7--7--7--7--7--7--7--7--4--4--4--4--4--4--4--4--|

  E  E  E  E  E  E  E  E  E  E  E  E  E  E  E  E   
--------------------------------------------------|
--------------------------------------------------|
--------------------------------------------------|
--5--5--5--5--5--5--5--5--5--5--5--5--5--5--5--5--|

  E  E  E  E  E  E  E  E  E  E  E  E  E  E  E  E   
--------------------------------------------------|
--------------------------------------------------|
--------------------------------------------------|
--7--7--7--7--7--7--7--7--4--4--4--4--4--4--4--4--|

  E  E  E  E  E  E  E  E  E  E  E  E  E  E  E  E   
--------------------------------------------------|
--------------------------------------------------|
--------------------------------------------------|
--5--5--5--5--5--5--5--5--5--5--5--5--5--5--5--5--|

  E  E  E  E  E  E  E  E  E  E  E  E  E  E  E  E   
--------------------------------------------------|
--------------------------------------------------|
--------------------------------------------------|
--7--7--7--(b9)-(b9)-(b9)-4--4--5--5--5--4--4--4--5--5--|

  E  E  E  E  E  E  E  E  E  E  E  E  E  E  E  E   
--------------------------------------------------|
--------------------------------------------------|
--------------------------------------------------|
--7--7--7--(b9)-(b9)-(b9)-4--4--5--5--5--4--4--4--5--5--|

  E  E  E  E  E  E  E  E  E  E  E  E  E  E  E  E   
--------------------------------------------------|
--------------------------------------------------|
--------------------------------------------------|
--7--7--7--(b9)-(b9)-(b9)-4--4--5--5--5--4--4--4--5--5--|

  E  E  E  E  E  E  E  E  E  E  E  E  E  E  E  E   
--------------------------------------------------|
--------------------------------------------------|
--------------------------------------------------|
--7--7--7--(b9)-(b9)-(b9)-4--4--5--5--5--4--4--4--5--5--|

  E  E  E  E  E  E  E  E  E  E  E  E  E  E  E  E   
--------------------------------------------------|
--------------------------------------------------|
--------------------------------------------------|
--7--7--7--(b9)-(b9)-(b9)-4--4--5--5--5--4--4--4--5--5--|

  E  E  E  E  E  E  E  E  E  E  E  E  E  E  E  E   
--------------------------------------------------|
--------------------------------------------------|
--------------------------------------------------|
--7--7--7--(b9)-(b9)-(b9)-4--4--5--5--5--4--4--4--5--5--|

  E  E  E  E  E  E  E  E  E  E  E  E  E  E  E  E   
--------------------------------------------------|
--------------------------------------------------|
--------------------------------------------------|
--7--7--7--(b9)-(b9)-(b9)-4--4--5--5--5--4--4--4--5--5--|

  E  E  E  E  E  E  E  E  E  E  E  E  E  E  E  E   
--------------------------------------------------|
--------------------------------------------------|
--------------------------------------------------|
--7--7--7--(b9)-(b9)-(b9)-4--4--5--5--5--4--4--4--5--5--|

  E  E  E  E  E  E  E  E  E  E  E  E  E  E  E  E   
--------------------------------------------------|
--------------------------------------------------|
--------------------------------------------------|
--7--7--7--(b9)-(b9)-(b9)-4--4--5--5--5--4--4--4--5--5--|

  E  E  E  E  E  E  E  E  E  E  E  E  E  E  E  E   
--------------------------------------------------|
--------------------------------------------------|
--------------------------------------------------|
--7--7--7--(b9)-(b9)-(b9)-4--4--5--5--5--4--4--4--5--5--|

  E  E  E  E  E  E  E  E  E  E  E  E  E  E  E  E   
--------------------------------------------------|
--------------------------------------------------|
--------------------------------------------------|
--7--7--7--(b9)-(b9)-(b9)-4--4--5--5--5--4--4--4--5--5--|

  E  E  E  E  E  E  E  E  E  E  E  E  E  E  E  E    
--------------------------------------------------||
--------------------------------------------------||
--------------------------------------------------||
--7--7--7--(b9)-(b9)-(b9)-4--4--5--5--5--4--4--4--5--5--||

(Duration Legend)
---------------
W - whole
H - half
Q - quarter
E - 8th
S - 16th
T - 32nd
X - 64th
. - note dotted
|-n-|  - n-tuplets		   
AcordesyTabs.com © 2008 Acordes y Tablaturas para guitarra. Tabs and Chords for guitar. Aviso Legal - Contacto
El uso de este sitio está sujeto a la aceptación de los términos y condiciones (21 usuarios online)