tablaturas, partituras y acordes para guitarra
Busca por banda/artista:
 
y/o título de la canción:
A B C D E F G H I J K L M N O P Q R S T U V W X Y Z 0 1 2 3 4 5 6 7 8 9 / Top 100 tabs
Categorías
Usuarios
usuario:
Darse de alta
password:
Artistas más visitados
Publicidad
TOP acordes y tablaturas de Foo fighters


Estás en: Inicio > Letra F > Acordes y tablaturas de Foo fighters > Desenchanted lullaby
Desenchanted lullaby
de Foo fighters
Puntúa este acorde/tab:      
(0.1/5)
Reportar este acorde/tab
  Añadir a tus favoritos
  Imprimir
Intro
G|-------------------------------------------------------------|
D|-------------------------------------------------------------|
A|----------7-5--------------7-5-----------------7-------5-----|
E|-7~-----------5-7-------------5-7--------6h7---------------|

Verse 1
G|-------------------------------------------------------------|
D|---------------------------------------------------7-------7-|
A|----------7-5--------------7-5-----------7h9~--7-------5-----|
E|-7-----------5-7-------------5-7--------------------------|

G|-------------------------------------------------------------|
D|-----------------------------------------7h9~----------------|
A|----------7-5--------------7-5-----------------7-------5-----|
E|-7-----------5-7-------------5-7--------------------------|

Chorus 1
G|-------------------------------|
D|-------------------------------|
A|-0-0-1-2~--2-2-2-2-----2-2-2-2-|
E|-------------------------------|x4

G|-------------------------------|
D|-------------------------------|
A|-0-2-0-----------------0-0-0-0-|
E|-------0-0-0-0-0-0-0-0---------|

G|-------------------------------|
D|-------------------------------|
A|-0-0-1-2~--2-2-2-2-----2-2-2-2-|
E|-------------------------------| x3

G|----------------------------------------|
D|----------------------------------------|
A|-0-2-0-----------------0-0-0-0-0-0-1-2~-|
E|-------0-0-0-0-0-0-0-0------------------|

Verse 2
G|---------------------------------------------------------------|
D|-----------------------------------------7h9~------------------|
A|----------7-5--------------7-5-----------------7-------5-------|
E|--------------5-7-------------5-7----------------------------|

G|-------------------------------------------------------7~----|
D|---------------------------------------------7-----7---------|
A|----------7-5--------------7-5-----------7h(b9)--7-------------|
E|-7-----------5-7-------------5-7--------------------------|

Chorus 2
G|-------------------------------|
D|-------------------------------|
A|-0-0-1-2~--2-2-2-2-----2-2-2-2-|
E|-------------------------------|x4

G|-------------------------------|
D|-------------------------------|
A|-0-2-0-----------------0-0-0-0-|
E|-------0-0-0-0-0-0-0-0---------|

G|-------------------------------|
D|-------------------------------|
A|-0-0-1-2~--2-2-2-2-----2-2-2-2-|
E|-------------------------------| x3

G|----------------------------------------|
D|----------------------------------------|
A|-0-2-0-----------------0-0-0-0-0-0-1-2~-|
E|-------0-0-0-0-0-0-0-0------------------|

Interlude
G|------------------------|
D|-----------------0------|
A|-2-2-0h2p0----------0-1-|
E|-----------0------------|x4

G|------------------------|
D|-----------------0------|
A|-222-0h2p0----------0-1-|
E|-----------0------------|x2

G|------------------------|
D|------------------------|
A|-2-2-0h2p0--------------|
E|-----------0-1-2/10-5-6/|

G|----------------------------|
D|--------------------------0-|
A|---------12-----------------|
E|-/12//14----14-12-10h12~----|

Chorus 3
G|--------------------------------------------------------------|
D|--------------------------------------------------------------|
A|---0-1-2~--2-2-2-2-----2-2-2-2------------2-2-2-2-----2-2-2-2-|
E|--------------------------------------------------------------|

G|-------------------------------|
D|-------------------------------|
A|-0-0-1-2~--2-2-2-2-----2-2-2-2-|
E|-------------------------------|x3

G|---------------------------------|
D|---------------------------------|
A|-0-2-0-----------------5-5-5-5-5-|
E|-------0---0-0-0-0-0-0-----------|

G|-------------------------------|
D|-------------------------------|
A|-0-0-1-2~--2-2-2-2-----2-2-2-2-|
E|-------------------------------|x3

G|---------2h4-2---------------0-2-|
D|---------------4-2-0---0-2-4-----|
A|-0-2-0---------------0-----------|
E|-------0-------------------------|

G|---------------------------------|
D|---------------------------------|
A|-0-2-0-----------7-----5-5-5-5-5-|
E|-------0---0-0-0-----0-----------|x2

G|-------------------------------|
D|-------------------------------|
A|-0-0-1-2~--2-2-2-2-----2-2-2-2-|
E|-------------------------------|		   
AcordesyTabs.com © 2008 Acordes y Tablaturas para guitarra. Tabs and Chords for guitar. Aviso Legal - Contacto
El uso de este sitio está sujeto a la aceptación de los términos y condiciones (34 usuarios online)