tablaturas, partituras y acordes para guitarra
Busca por banda/artista:
 
y/o título de la canción:
A B C D E F G H I J K L M N O P Q R S T U V W X Y Z 0 1 2 3 4 5 6 7 8 9 / Top 100 tabs
Categorías
Usuarios
usuario:
Darse de alta
password:
Artistas más visitados
Publicidad
TOP acordes y tablaturas de My chemical romance


Teenagers
de My chemical romance
Puntúa este acorde/tab:      
(0.7/5)
Reportar este acorde/tab
  Añadir a tus favoritos
  Imprimir
Ins.:
	Gtr 1 – Frank Iero
	Gtr 2 – Ray Toro

I. VERSE

Gtr 2 (figure the PM’s yourself ^^)
e|---------------0---------------0--|--------------------------------0--|
B|---------------0---------------0--|--------------------------------0--|
G|----------------------------------|-----------------------------------|
D|----------------------------------|-------------------4-4-6-4--2/4----|
A|--2-2-4-2---------2-2-4-2---------|--2---4---5---4----2-2-4-2---------|
E|--0-0-0-0--2-4----0-0-0-0--2-4----|--0-0-0-0-0-0-0-0--2-2-4-2---------|
(continued)
e|---------------0---------------0--|-----------------------------------0--|
B|---------------0---------------0--|-----------------------------------0--|
G|----------------------------------|--------------------------------------|
D|----------------------------------|--------------------------------------|
A|--7-7-7-7--7------2-2-4-2---------|--(b9)(b9)11-(b9)12-(b9)11-(b9)-2-2-4-2---------|
E|--5-5-4-5--4/5----0-0-0-0--2-4----|--7-7--7-7--7-7--7-7--0-0-0-0--2-4----|

Then, (Gtr 2 keeps playing ^^^ riff)
Gtr 1
e|----------------------------------|-------------------------------------|
B|----------------------------------|-------------------------------------|
G|----------------------------------|-------------------------------------|
D|----------------------------------|----------6-6-6-6--4-4-6-4-----------|
A|--7-7-7-7---------7-7-7-7---------|--7-7-7-7----------------------------|
E|----------------------------------|-------------------------------------|
(continued)
e|----------------------------------|--------------------------------------|
B|----------------------------------|--------------------------------------|
G|----------------------------------|--------------------------------------|
D|--7-7-7-7--7-6-4--4-4-6-----------|----------4-6-4-----------------------|
A|------------------------7--7-7----|--6-6-7-7-------7--7------------------|
E|----------------------------------|--------------------------------------|

Then, just before the chorus:
Gtr 2
E|---------------------|
B|---------------------|
G|--11/13-13-11-9-(b9)-|
D|---------------------|
A|---------------------|
E|---------------------|

II. CHORUS

Gtr 1 (Fast strumming)
e|----------------------------------|------------------------------------|
B|----------------------------------|------------------------------------|
G|--(b9)(b9)8-(b9)-4-6-8--(b9)(b9)8-(b9)-4-6-8--|--(b9)(b9)(b9)(b9)13131313-11111311-111111--|
D|--x-x-x-x--x-x-x--x-x-x-x--x-x-x--|--x-x-x-x--x-x-x-x--x-x-x-x--x-x-x--|
A|--7-7-6-7--2-4-6--7-7-6-7--2-4-6--|--7-7-7-7-11111111--(b9)911-(b9)-(b9)(b9)(b9)-|
E|----------------------------------|------------------------------------|
Gtr 2
e|---------------0---------------0--|--------------------------------0--|
B|---------------0---------------0--|--------------------------------0--|
G|----------------------------------|-----------------------------------|
D|----------------------------------|-------------------4-4-6-4--2/4----|
A|--2-2-4-2---------2-2-4-2---------|--2-2-4-2-5-2-4-2--2-2-4-2---------|
E|--0-0-0-0--2-4----0-0-0-0--2-4----|--0-0-0-0-0-0-0-0--2-2-4-2---------|

Gtr 1
e|----------------------------------|----------------------|-----|
B|----------------------------------|----------------------|-----|
G|--14141414-141413-11-13-(b9)-(b9)(b9)(b9)-|--8-8-(b9)(b9)11-13-11-(b9)-|--(b9)-|
D|---x-x-x-x--x-x-x--x--x-x--x-x-x--|--x-x-x-x--x--x--x-x--|--x--|
A|--12121212-121211--(b9)11-7--7-7-7--|--6-6-7-7--(b9)11--(b9)7--|--7--|
E|----------------------------------|----------------------|-----|
Gtr 2
e|---------------0---------------0--|----------------------|-----|
B|---------------0---------------0--|----------------------|-----|
G|----------------------------------|----------------------|-----|
D|----------------------------------|----------------------|--2--|
A|--7-7-7-7--7------2-2-4-2---------|--(b9)(b9)11-(b9)12-(b9)11-(b9)-|--2--|
E|--5-5-4-5--4/5----0-0-0-0--2-4----|--7-7--7-7--7-7--7-7--|--0--|

(Repeat VERSE and CHORUS)

III. SOLO

Gtr 1
e|-----------------------------------|-----------------------------------|
B|-----------------------------------|-----------------------------------|
G|-----------------------------------|-----------------------------------|
D|--7-7-7-7-7-7-7-7-7-7-7-7-7-7-7-7--|--2-2-2-2-2-2-2-2-2-2-2-2-2-2-2-2--|
A|--7-7-7-7-7-7-7-7-7-7-7-7-7-7-7-7--|--2-2-2-2-2-2-2-2-2-2-2-2-2-2-2-2--|
E|--5-5-5-5-5-5-5-5-5-5-5-5-5-5-5-5--|--0-0-0-0-0-0-0-0-0-0-0-0-0-0-0-0--|
(continued)
e|-----------------------------------|-----------------------------------|
B|-----------------------------------|-----------------------------------|
G|-----------------------------------|-----------------------------------|
D|--7-7-7-7-7-7-7-7-7-7-7-7-7-7-7-7--|--(b9)(b9)(b9)(b9)(b9)(b9)(b9)(b9)(b9)(b9)(b9)(b9)(b9)(b9)(b9)(b9)-|
A|--7-7-7-7-7-7-7-7-7-7-7-7-7-7-7-7--|--(b9)(b9)(b9)(b9)(b9)(b9)(b9)(b9)(b9)(b9)(b9)(b9)(b9)(b9)(b9)(b9)-|
E|--5-5-5-5-5-5-5-5-5-5-5-5-5-5-5-5--|--7-7-7-7-7-7-7-7-7-7-7-7-7-7-7-7--|
Gtr 2 (thanks to sloppyjoe24)
e|-----------------------------------12--|-----------12--|continued below
B|------------------------7-7h(b9)7h(b9)-12--|-----------12--|
G|--9p7h9p7-(b9)-7--5h6--(b9)-7-7h(b9)7h(b9)-----|--14p12-13-----|
D|----------(b9)-7--7----(b9)----------------|---------------|
A|---------------------------------------|---------------|
E|---------------------------------------|---------------|
(continued)
e|--------------------------------------------------|
B|--15^r^r-15-12h15p12-10h12p10-8--10^(12)rp8-10p8--|
G|--------------------------------------------------|
D|--------------------------------------------------|
A|--------------------------------------------------|
E|--------------------------------------------------|
(continued)
e|---------------------------------|
B|---------------------------------|
G|--(b9)-7p5-6--(b9)--(b9)(b9)(b9)7p5-6--(b9)--|
D|--(b9)--------(b9)--(b9)(b9)(b9)-------(b9)--|
A|---------------------------------|
E|---------------------------------|
(continued)
e|-----------------------------------------------------|
B|-----------------------------------------------------|
G|--9^(11)~-9^-9^-9^-9^-9^-9^-9^-9^-9^-9^-9^-9^-9rvvv--|
D|-----------------------------------------------------|
A|-----------------------------------------------------|
E|-----------------------------------------------------|

Repeat CHORUS 2x

Gtr 2’s ending:
e|-------------------|
B|-------------------|
G|--9s11-11p9p7--9~--|
D|-------------------|
A|-------------------|
E|-------------------|		   
AcordesyTabs.com © 2008 Acordes y Tablaturas para guitarra. Tabs and Chords for guitar. Aviso Legal - Contacto
El uso de este sitio está sujeto a la aceptación de los términos y condiciones (62 usuarios online)