tablaturas, partituras y acordes para guitarra
Busca por banda/artista:
 
y/o título de la canción:
A B C D E F G H I J K L M N O P Q R S T U V W X Y Z 0 1 2 3 4 5 6 7 8 9 / Top 100 tabs
Categorías
Usuarios
usuario:
Darse de alta
password:
Artistas más visitados
Publicidad
TOP acordes y tablaturas de Lynyrd skynyrd


Last rebel
de Lynyrd skynyrd
Puntúa este acorde/tab:      
(0.4/5)
Reportar este acorde/tab
  Añadir a tus favoritos
  Imprimir
E|-0------------------------------------------------------------0-------0------------------|
B|--1-0h1--------------------------------------------------------1-0h1---------------------|
G|-------2------------------------------------------------------------2--------------------|
D|---------------------------------------------------------------------2-------------------|
A|-----------------------------------------------------------------------------------------|
E|-----------------------------------------------------------------------------------------|

Guitar 2

E|---------12----12----12-----------------------------------------------12-12-12-12-12-12--|
B|------------15-12h13-12h13--12-------------------------------------------15-13-12-13-15--|
G|-------------------------------12-14-12--------------------------------------------------|
D|----------------------------------------12s14-12-10-12-14--------------------------------|
A|-----------------------------------------------------------------------------------------|
E|-----------------------------------------------------------------------------------------|

Guitar 1

E|-----------------------------------------------------------------------------------------|
B|-----------------------------------------------------------------------------------------|
G|-----------------------------------------------------------------------------------------|
D|-----------------------------------------------------------------------------------------|
A|-----------------------------------------------------------------------------------------|
E|-----------------------------------------------------------------------------------------|

Guitar 2

E|-12------------------------------12--------12--------12--------12--------12--------------|
B|-13--12----------------------------------------------------------------------------------|
G|--------14-12---12--12h14-14(X4)----14(X3)----14(X3)----14(X3)----14(X3)-----------------|
D|-------------14--------------------------------------------------------------------------|
A|-----------------------------------------------------------------------------------------|
E|-----------------------------------------------------------------------------------------|

Guitar 1

E|----------------------------------------------------------------------------------0------|
B|----1----1s3-1--3s1-1----1-------1--------------0h1---1s3-1--3s1-1----------------1------|
G|----2-2--2s4--2-4s2--2----0--0----0-0---0------2---2--2s4--2-4s2--2---------------0------|
D|---2---2-2s4----4s2-----2--2-2s4----4s2--2----2-----2-2s4----4s2---------------0--2------|
A|--0--------------------3-----3s5----5s3------0---------------------------------2--3------|
E|---------------------------------------------------------------------1------3--3---------|

Guitar 2

E|----------------------------------17(X9)-15--------------------|
B|--------------------------------------------------------13-----|
G|--------------------------------------------------------14-----|
D|---------------------------------------------------------------|
A|---------------------------------------------------------------|
E|---------------------------------------------------------------|		   
AcordesyTabs.com © 2008 Acordes y Tablaturas para guitarra. Tabs and Chords for guitar. Aviso Legal - Contacto
El uso de este sitio está sujeto a la aceptación de los términos y condiciones (30 usuarios online)