tablaturas, partituras y acordes para guitarra
Busca por banda/artista:
 
y/o título de la canción:
A B C D E F G H I J K L M N O P Q R S T U V W X Y Z 0 1 2 3 4 5 6 7 8 9 / Top 100 tabs
Categorías
Usuarios
usuario:
Darse de alta
password:
Artistas más visitados
Publicidad
TOP acordes y tablaturas de Foo fighters


But honestly
de Foo fighters
Puntúa este acorde/tab:      
(0.4/5)
Reportar este acorde/tab
  Añadir a tus favoritos
  Imprimir
Guitar 1 plays all up till the start of the build up then guitar 2 kicks in and
after solo guitar 3 kicks in too.

 Intro
e|---0--0--0--0--0--0--0--0--0--0--0--0--0--0--0--0----|
B|---0--0--0--0--0--0--0--0--0--0--0--0--0--0--0--0----|
G|---(b9)-(b9)-(b9)-(b9)-(b9)-(b9)-(b9)-(b9)-(b9)-(b9)-(b9)-(b9)-13-13-13-13---|
D|---(b9)-(b9)-(b9)-(b9)-(b9)-(b9)-(b9)-(b9)-(b9)-(b9)-(b9)-(b9)-14-14-14-14---|
A|---7--7--7--7--x--x--x--x--0--0--0--0--0--0--0--0----|x 6
E|---x--x--x--x--7--7--7--7--x--x--x--x--x--x--x--x----|

 Verus
e|---0--0--0--0--0--0--0--0--0--0--0--0--0--0--0--0---|
B|---0--0--0--0--0--0--0--0--0--0--0--0--0--0--0--0---|
G|---3--3--3--3--3--3--3--3--2--2--2--2--1--1--1--1---|
D|---4--4--4--4--4--4--4--4--2--2--2--2--2--2--2--2---|
A|---4--4--4--4--4--4--4--4--0--0--0--0--2--2--2--2---|
E|---2--2--2--2--2--2--2--2---------------------------| x 3

e|---0--0--0--0--0--0--0--0--0--0--0--0--0--0--0--0---|
B|---0--0--0--0--0--0--0--0--0--0--0--0--0--0--0--0---|
G|---3--3--3--3--3--3--3--3--1--1--1--1--1--1--1--1---|
D|---4--4--4--4--4--4--4--4--2--2--2--2--2--2--2--2---|
A|---4--4--4--4--4--4--4--4--2--2--2--2--2--2--2--2---|
E|---2--2--2--2--2--2--2--2---------------------------|

Play Intro x 6

Then V

Play Verus (this time the first part of the verus is played 4 times)

 Interlude
e|---0--0--0--0--0--0--0--0--0--0--0--0--0--0--0--0---|
B|---0--0--0--0--0--0--0--0--0--0--0--0--0--0--0--0---|
G|---4--4--4--4--4--4--4--4--6--6--6--6--6--6--6--6---|
D|---4--4--4--4--4--4--4--4--6--6--6--6--6--6--6--6---|
A|---2--2--2--2--2--2--2--2--4--4--4--4--4--4--4--4---|
E|----------------------------------------------------|

e|---0--0--0--0--0--0--0--0--0--0--0--0--0--0--0--0---|
B|---0--0--0--0--0--0--0--0--0--0--0--0--0--0--0--0---|
G|---5--5--5--5--5--5--5--5--1--1--1--1--1--1--1--1---|
D|---5--5--5--5--5--5--5--5--2--2--2--2--2--2--2--2---|
A|---3--3--3--3--3--3--3--3--2--2--2--2--2--2--2--2---|
E|----------------------------------------------------|

e|---0--0--0--0--0--0--0--0--0--0--0--0--0--0--0--0---|
B|---0--0--0--0--0--0--0--0--0--0--0--0--0--0--0--0---|
G|---4--4--4--4--4--4--4--4--6--6--6--6--6--6--6--6---|
D|---4--4--4--4--4--4--4--4--6--6--6--6--6--6--6--6---|
A|---2--2--2--2--2--2--2--2--4--4--4--4--4--4--4--4---|
E|----------------------------------------------------|

e|---0--0--0--0--0--0--0--0--0--0--0--0--0--0--0--0---|
B|---0--0--0--0--0--0--0--0--0--0--0--0--0--0--0--0---|
G|---5--5--5--5--5--5--5--5--5--5--5--5--5--5--5--5---|
D|---5--5--5--5--5--5--5--5--5--5--5--5--5--5--5--5---|
A|---3--3--3--3--3--3--3--3--3--3--3--3--3--3--3--3---|
E|----------------------------------------------------|

 Start of build up

 Guitar 1
e|---0--0--0--0--0--0--0--0--0--0--0--0--0--0--0--0---|
B|---0--0--0--0--0--0--0--0--0--0--0--0--0--0--0--0---|
G|---(b9)-(b9)-(b9)-(b9)-(b9)-(b9)-(b9)-(b9)-7--7--7--7--7--7--7--7---|
D|---(b9)-(b9)-(b9)-(b9)-(b9)-(b9)-(b9)-(b9)-7--7--7--7--7--7--7--7---|
A|---7--7--7--7--7--7--7--7--5--5--5--5--5--5--5--5---|
E|----------------------------------------------------|

e|---0--0--0--0--0--0--0--0--0--0--0--0--0--0--0--0---|
B|---0--0--0--0--0--0--0--0--0--0--0--0--0--0--0--0---|
G|---5--5--5--5--5--5--5--5--2--2--2--2--2--2--2--2---|
D|---5--5--5--5--5--5--5--5--2--2--2--2--2--2--2--2---|
A|---3--3--3--3--3--3--3--3--0--0--0--0--0--0--0--0---| x 4
E|----------------------------------------------------|

 Guitar 2 (Each time guitar 1 changes chords)
e|-------0---|-------0---|-------0---|-------0---|
B|------0----|------0----|------0----|------0----|
G|-----(b9)----|-----7-----|-----5-----|-----2-----|
D|----(b9)-----|----7------|----5------|----2------|
A|---7-------|---5-------|---3-------|---0-------| x 2
E|-----------|-----------|-----------|-----------|

Then

 Guitar 2
e|----------------------------------------------------|
B|---5--5--5--5--5--5--5--5--7--7--7--7--7--7--7--7---|
G|---x--x--x--x--x--x--x--x--x--x--x--x--x--x--x--x---|
D|---2--2--2--2--2--2--2--2--4--4--4--4--4--4--4--4---|
A|----------------------------------------------------|
E|----------------------------------------------------|

e|------------------------------------------------------------|
B|---8--8--8--8--8--8--8--8--10--10--10--10--10--10--10--10---|
G|---x--x--x--x--x--x--x--x--x---x---x---x---x---x---x---x----|
D|---5--5--5--5--5--5--5--5--7---7---7---7---7---7---7---7----|
A|------------------------------------------------------------| x 2
E|------------------------------------------------------------|

Solo

 Guitar 2 (Each section play 4 times)
e|-------------------|-----------------|----------------|
B|---12--10--(b9)-10---|---10--(b9)-7--5---|---8--7--5--3---|
G|-------------------|-----------------|----------------|
D|-------------------|-----------------|----------------|
A|-------------------|-----------------|----------------|
E|-------------------|-----------------|----------------|

e|------------2--3--5-----------2--3--5------------|
B|---2--3--5-----------2--3--5-----------2--3--5---|
G|-------------------------------------------------|
D|-------------------------------------------------|
A|-------------------------------------------------| Solo play till fade out
E|-------------------------------------------------|


 Guitar 1 Played behind solo
e|----------------------------------------------------|
B|----------------------------------------------------|
G|---(b9)-(b9)-(b9)-(b9)-(b9)-(b9)-(b9)-(b9)-7--7--7--7--7--7--7--7---|
D|---(b9)-(b9)-(b9)-(b9)-(b9)-(b9)-(b9)-(b9)-7--7--7--7--7--7--7--7---|
A|---7--7--7--7--7--7--7--7--5--5--5--5--5--5--5--5---|
E|----------------------------------------------------|

e|----------------------------------------------------|
B|----------------------------------------------------|
G|---5--5--5--5--5--5--5--5--2--2--2--2--2--2--2--2---|
D|---5--5--5--5--5--5--5--5--2--2--2--2--2--2--2--2---|
A|---3--3--3--3--3--3--3--3--0--0--0--0--0--0--0--0---| x 2
E|----------------------------------------------------|

Then changes to
e|----------------------------------------------------|
B|----------------------------------------------------|
G|----------------------------------------------------|
D|---2--2--2--2--2--2--2--2--4--4--4--4--4--4--4--4---|
A|---2--2--2--2--2--2--2--2--4--4--4--4--4--4--4--4---|
E|---0--0--0--0--0--0--0--0--2--2--2--2--2--2--2--2---|

e|----------------------------------------------------|
B|----------------------------------------------------|
G|----------------------------------------------------|
D|---5--5--5--5--5--5--5--5--7--7--7--7--7--7--7--7---|
A|---5--5--5--5--5--5--5--5--7--7--7--7--7--7--7--7---| play until fades out
E|---3--3--3--3--3--3--3--3--5--5--5--5--5--5--5--5---|

 Guitar 3 kicks in when guiar 1 changes
e|----------------------------------------------------|
B|---5--5--5--5--5--5--5--5--7--7--7--7--7--7--7--7---|
G|---x--x--x--x--x--x--x--x--x--x--x--x--x--x--x--x---|
D|---2--2--2--2--2--2--2--2--4--4--4--4--4--4--4--4---|
A|----------------------------------------------------|
E|----------------------------------------------------|

e|------------------------------------------------------------|
B|---8--8--8--8--8--8--8--8--10--10--10--10--10--10--10--10---|
G|---x--x--x--x--x--x--x--x--x---x---x---x---x---x---x---x----|
D|---5--5--5--5--5--5--5--5--7---7---7---7---7---7---7---7----|
A|------------------------------------------------------------| x 2
E|------------------------------------------------------------|

Then

e|----------------------------------------------------|
B|---5--5--5--5--5--5--5--5--7--7--7--7--7--7--7--7---|
G|---x--x--x--x--x--x--x--x--x--x--x--x--x--x--x--x---|
D|---2--2--2--2--2--2--2--2--4--4--4--4--4--4--4--4---|
A|----------------------------------------------------|
E|----------------------------------------------------|
					Play final bar till fade out
e|------------------------------------|------------------------------------|
B|---15--15--15--15--15--15--15--15---|---17--17--17--17--17--17--17--17---|
G|---x---x---x---x---x---x---x---x----|---x---x---x---x---x---x---x---x----|
D|---12--12--12--12--12--12--12--12---|---14--14--14--14--14--14--14--14---|
A|------------------------------------|------------------------------------|
E|------------------------------------|------------------------------------|		   
AcordesyTabs.com © 2008 Acordes y Tablaturas para guitarra. Tabs and Chords for guitar. Aviso Legal - Contacto
El uso de este sitio está sujeto a la aceptación de los términos y condiciones (29 usuarios online)