tablaturas, partituras y acordes para guitarra
Busca por banda/artista:
 
y/o título de la canción:
A B C D E F G H I J K L M N O P Q R S T U V W X Y Z 0 1 2 3 4 5 6 7 8 9 / Top 100 tabs
Categorías
Usuarios
usuario:
Darse de alta
password:
Artistas más visitados
Publicidad
TOP acordes y tablaturas de Aerosmith


Estás en: Inicio > Letra A > Acordes y tablaturas de Aerosmith > Living on the edge
Living on the edge
de Aerosmith
Puntúa este acorde/tab:      
(0.2/5)
Reportar este acorde/tab
  Añadir a tus favoritos
  Imprimir
D5
e+-----------0h2p0-------0---------|-----------0h2p0-------0---------|
B+-----3-----------3-------3-----3-|-----3-----------3-------3-----3-|
G+---------------------------0h2---|---------------------------0h2---|
d+-0-------------------------------|-0-------------------------------|
A+---------------------------------|---------------------------------|
D+---------------------------------|---------------------------------|

|---------------------------------|---------------------------------|
|---------------------------------|---------------------------------|
|-------7--7--7--7--9b11r9b10r(b9)7-|-------7--7--7--7--9b11r(b9)-------|
|---------------------------------|---------------------------------|
|---------------------------------|---------------------------------|
|---------------------------------|---------------------------------|

 [F#5]            
|---------------------------------|---------------------------------|
|---------------------------------|---------------------------------|
|---------------------------------|---------------------------------|
|-----------------------2---------|-----------------------2---------|
|-4---4-------4---2-3-4-0-----4-2-|-4---4-------4---2-3-4-0-----4/--|
|-4---4-------4---2-3-4-------4-2-|-4---4-------4---2-3-4-------4/--|

 [B5]
|---------------------------------|---------------------------------|
|---------------------------------|---------------------------------|
|-----------------------7---------|-----------------------7---------|
|-----------------------7---------|-----------------------7---------|
|-(b9)--(b9)------(b9)--7-8-(b9)------(b9)7-|-(b9)--(b9)------(b9)--7-8-(b9)------9--|
|-(b9)--(b9)------(b9)--7-8-(b9)------(b9)7-|-(b9)--(b9)------(b9)--7-8-(b9)------9--|

 [F#5]
|---------------------------------|---------------------------------|
|---------------------------------|---------------------------------|
|---------------------------------|---------------------------------|
|-----------------------2---------|-----------------------2---------|
|-4---4-------4---2-3-4-0-----4-2-|-4---4-------4---2-3-4-0-----4---|
|-4---4-------4---2-3-4-------4-2-|-4---4-------4---2-3-4-------4---|
                        
 FILL 1:
   |---------------------------------|---------------------------------|
   |---------------------------------|-----9b10r(b9)--7-9b10r(b9)---7-(b9)7-|
   |-----------------7b(b9)----7-------|---7-9b11r(b9)--7-9b11r(b9)---7-(b9)7-|
   |---------------------------------|-(b9)------------------------------|
   |---------------------------------|---------------------------------|
   |---------------------------------|---------------------------------|

 FILL 2:
   |---------------------------------|------------------------------7-|
   |---------------------------------|-----(b9)(b9)9b10r9b10r9b10r(b9)----7-|
   |-----------------7b(b9)----7-------|---7-(b9)(b9)9b11r9b11r9b11r(b9)7------|
   |---------------------------------|-(b9)-------------------------(b9)---|
   |---------------------------------|---------------------------------|
   |---------------------------------|---------------------------------|

 |---------17--------------17------|
 |-15--------------15--------------|
 |-----14------14------14------14--|
 |---------------------------------|
 |---------------------------------|
 |---------------------------------|

|-----6-----------|-----5-----------|
|-----------------|-----------------|
|-7b8-(hold)------|-8r7-------------|
|-----------------|-----------------|
|-----------------|-----------------|
|-----------------|-----------------|

|------10---------|------8----------|-----6-----------|-----5-----------|
|-----------------|-----------------|-----------------|-----------------|
|-9b11-(hold)-----|-11r(b9)-----------|-7b8-(hold)------|-8r7-------------|
|-----------------|-----------------|-----------------|-----------------|
|-----------------|-----------------|-----------------|-----------------|
|-----------------|-----------------|-----------------|-----------------|

      D5     Bm     A5     A#     G5     F5     E5    D#5    G/B
   |---------2------------------------------------------------3--|
   |--3------3-------------3-----(8)----(6)----(5)----(4)-----3--|
   |--2------4------2------3-----(7)----(5)----(4)----(3)-----0--|
   |--0------4------2------3------5------3------2------1------0--|
   |--0------2------0------1------5------3------2------1------2--|
   |------------------------------5------3------2------1---------|		   
AcordesyTabs.com © 2008 Acordes y Tablaturas para guitarra. Tabs and Chords for guitar. Aviso Legal - Contacto
El uso de este sitio está sujeto a la aceptación de los términos y condiciones (30 usuarios online)