tablaturas, partituras y acordes para guitarra
Busca por banda/artista:
 
y/o título de la canción:
A B C D E F G H I J K L M N O P Q R S T U V W X Y Z 0 1 2 3 4 5 6 7 8 9 / Top 100 tabs
Categorías
Usuarios
usuario:
Darse de alta
password:
Artistas más visitados
Publicidad
TOP acordes y tablaturas de Lynyrd skynyrd


Estás en: Inicio > Letra L > Acordes y tablaturas de Lynyrd skynyrd > Double trouble
Double trouble
de Lynyrd skynyrd
Puntúa este acorde/tab:      
(0.7/5)
Reportar este acorde/tab
  Añadir a tus favoritos
  Imprimir
E|------------------------------------------------------------
B|--------------1~--------------------------------------------
G|--2-----0--------x-2---0h2----2----0-----2--x-0h2p0h2p0h2---
D|----0-----0----------0----------0----0----------------------
A|-0----0-----0---------------0-----0----0--------------------
E|------------------------------------------------------------

LICK 2:
E|--------------1---------------------------------
B|--3-----1---------3---1h3---3-----1-----3-------
G|----2-----2-------------------2-----2-----------
D|-0----0-----0---0---0------0----0-----0---------
A|------------------------------------------------
E|------------------------------------------------

LICK 3:
E|--------------3---------------------------------
B|--5-----3---------5---3h5---5-----3-----5-------
G|----4-----4-------------------4-----4-----------
D|-2----2-----2---2---2------2----2-----2---------
A|------------------------------------------------
E|------------------------------------------------		   
AcordesyTabs.com © 2008 Acordes y Tablaturas para guitarra. Tabs and Chords for guitar. Aviso Legal - Contacto
El uso de este sitio está sujeto a la aceptación de los términos y condiciones (46 usuarios online)