tablaturas, partituras y acordes para guitarra
Busca por banda/artista:
 
y/o título de la canción:
A B C D E F G H I J K L M N O P Q R S T U V W X Y Z 0 1 2 3 4 5 6 7 8 9 / Top 100 tabs
Categorías
Usuarios
usuario:
Darse de alta
password:
Artistas más visitados
Publicidad
TOP acordes y tablaturas de Lynyrd skynyrd


Estás en: Inicio > Letra L > Acordes y tablaturas de Lynyrd skynyrd > Roll gypsy roll
Roll gypsy roll
de Lynyrd skynyrd
Puntúa este acorde/tab:      
(0.1/5)
Reportar este acorde/tab
  Añadir a tus favoritos
  Imprimir
e|------10-----------------13-15brp13-15b-15'---13-------------------------|
B|---------13-13b~----13b---------------------------15---------------------|
G|--12b--------------------------------------------------------------------|
D|-------------------------------------------------------------------------|
A|-------------------------------------------------------------------------|
E|-------------------------------------------------------------------------|

e|--13--15--15b~~~---15b~~~---15brp13--15b--15b---13-----------------------|
B|----------------------------------------------------15-------------------|
G|-------------------------------------------------------------------------|
D|-------------------------------------------------------------------------|
A|-------------------------------------------------------------------------|
E|-------------------------------------------------------------------------|

e|----------------------------------------------------------13-------------|
B|--15brp13-15b(18)rp13-15----15-15p13------15brp13-15---15----15----------|
G|-------------------------------------14----------------------------------|
D|-------------------------------------------------------------------------|
A|-------------------------------------------------------------------------|
E|-------------------------------------------------------------------------|

e|-----13-------13-------13-------13-------13------------------------------|
B|--15----15p13----15p13----15p13----15p13----15p13------------------------|
G|-------------------------------------------------------------------------|
D|-------------------------------------------------------------------------|
A|-------------------------------------------------------------------------|
E|-------------------------------------------------------------------------|

e|-------------------------------------------------------------------------|
B|--18br(slow)-15-15---15-15----15----------------------------------------|
G|---------------------------17--------------------------------------------|
D|-------------------------------------------------------------------------|
A|-------------------------------------------------------------------------|
E|-------------------------------------------------------------------------|

e|-------------------3-----------------------------------------------------|
B|-------------------------------------------------------------------------|
G|--2~---2/5---5--2b---2brp0-----0---------2~---2/5---5-------END----------|
D|---------------------------2-0---2p0--------------------5---SOLO---------|
A|--------------------------------------------------------5----------------|
E|-------------------------------------3------------------3----------------|		   
AcordesyTabs.com © 2008 Acordes y Tablaturas para guitarra. Tabs and Chords for guitar. Aviso Legal - Contacto
El uso de este sitio está sujeto a la aceptación de los términos y condiciones (49 usuarios online)