tablaturas, partituras y acordes para guitarra
Busca por banda/artista:
 
y/o título de la canción:
A B C D E F G H I J K L M N O P Q R S T U V W X Y Z 0 1 2 3 4 5 6 7 8 9 / Top 100 tabs
Categorías
Usuarios
usuario:
Darse de alta
password:
Artistas más visitados
Publicidad
TOP acordes y tablaturas de Lynyrd skynyrd


Voodoo lake
de Lynyrd skynyrd
Puntúa este acorde/tab:      
(0.2/5)
Reportar este acorde/tab
  Añadir a tus favoritos
  Imprimir
E|----------------------------------------------------------|
B|---1h3------3-----3----1h3-----3------3-------------------|
G|---2--------2-----2----2-------2------2-------------------|
D|---0-----0-----0-------0----0------0-----0----------------|
A|----------------------------------------------------------|
D|----------------------------------------------------------|

Guitar 2

E|----------------------------------------------------------|
B|----------------------------------------------------------|
G|--------7-------------------------------------------------|
D|----9b-----9br--7v----------------------------------------|
A|----------------------------------------------------------|
D|----------------------------------------------------------|
    
E|----------------------------------------------------------|
B|-------3-5b--r--3--5-3/1--3v------------------------------|
G|----5-----------------------------------------------------|
D|----------------------------------------------------------|
A|----------------------------------------------------------|
D|----------------------------------------------------------|

E|----------------------------------------------------------|
B|----------------------------------------------------------|
G|--------7-------------------------------------------------|
D|----9b-----9br--7v----------------------------------------|
A|----------------------------------------------------------|
D|----------------------------------------------------------|

E|----------------------------------------------------------|
B|----------------------------------------------------------|
G|----------------------------------------------------------|
D|----------------------------------------------------------|
A|----------------------------------------------------------|
D|-----/10-(b9)7-5-3-5-3/2--0---------------------------------|

E|----------------------------------------------------------|
B|----------------------------------------------------------|
G|----------------------------------------------------------|
D|------3p0---------------------0---------------------------|
A|---0-------0--3/5---5p0---------------3--5----------------|
D|-------------------------3/5------0---3--5----------------|

E|----------------------------------------------------------|
B|------------------------------------------3---------------|
G|------------------------------------------2---------------|
D|--------3p0-------------------------------0---------------|
A|---0----------0---3/5----5p0----3/5/3---------------------|
D|--------------------------------3/5/3----(0)--------------|

Verse

E|----------------------------------------------------------|
B|----------------------------------------------------------|
G|----------------------------------------------------------|
D|----7-7--5/7---7-7---5/7----7-7---5/7---------------------|
A|----5-5--3/5---5-5---3/5----5-5---3/5----5-5--3/5---------|
D|-----------------------------------------5-5--3/5---------|

Chorus

E|----------------------------------------------------------|
B|----------------------------------------------------------|
G|----------------------------------------------------------|
D|------------------------------7-7---5-7-------------------|
A|----5-5---3-5----5-5---3-5----5-5---3-5----5-5---3-5------|
D|----5-5---3-5----5-5---3-5-----------------5-5---3-5------|

E|----------------------------------------------------------|
B|----------------------------------------------------------|
G|----------------------------------------------------------|
D|----------------------------------------------------------|
A|----5-5---3-5----5-5---3-5-----7-7---5-7-----10-10-10-----|
D|----5-5---3-5----5-5---3-5-----7-7---5-7-----10-10-10-----|

E|----------------------------------------------------------|
B|-------3-----3-----3-----3-----3-----3------3-------------|
G|-------2-----2-----2-----2-----2-----2------2-------------|
D|----0-----0-----0-----0-----0-----0------0----------------|
A|----------------------------------------------------------|
D|----------------------------------------------------------|

E|----------------------------------------------------------|
B|--------3-------3------3----------------------------------|
G|--------0-------0------0----------------------------------|
D|--------0-------0------2----------------------------------|
A|----2-------2----------3----------------------------------|
D|----------------------------------------------------------|
                                               
E|----------------------------------------------------------|
B|----------------------------------------------------------|
G|----------------------------------------------------------|
D|------------0---3b---0------------------------------------|
A|-------5p3--------------0---3--5--3----0------------------|
D|----0--------------------------------------3/2v---0-------|

E|----------------------------------------------------------|
B|----------------------------------------------------------|
G|----------------------------------------------------------|
D|-------------0---3b---0------------------5/3------0-------|
A|-------5p3---------------0---3-5-3---0---5/3--5-----------|
D|----0-----------------------------------------------------|		   
AcordesyTabs.com © 2008 Acordes y Tablaturas para guitarra. Tabs and Chords for guitar. Aviso Legal - Contacto
El uso de este sitio está sujeto a la aceptación de los términos y condiciones (30 usuarios online)