tablaturas, partituras y acordes para guitarra
Busca por banda/artista:
 
y/o título de la canción:
A B C D E F G H I J K L M N O P Q R S T U V W X Y Z 0 1 2 3 4 5 6 7 8 9 / Top 100 tabs
Categorías
Usuarios
usuario:
Darse de alta
password:
Artistas más visitados
Publicidad
TOP acordes y tablaturas de Lynyrd skynyrd


Wino
de Lynyrd skynyrd
Puntúa este acorde/tab:      
(0.3/5)
Reportar este acorde/tab
  Añadir a tus favoritos
  Imprimir
e|-----------3-0-0--------------------------------|
b|-----3-3h5-------------------3-0-0--------------|
G|-2h4-------------------2-2h4--------------------|
D|-------------------2h4--------------------------|
A|------------------------------------------------|
E|------------------------------------------------|

Fill Riff#1 (Play 2x)
e|------------------------------------------------|
b--------------------3-3-0-----------------------|
G|--4-4-----------2h4-----------------------------|
D|--4-4--2-2--2h4---------------------------------|
A|--2-2--2-2--------------------------------------|
E|-------0-0--------------------------------------|

Play Verse

Chorus (Play 2x)
e|------------------------------------------------|
b------------------------------------------------|
G|------------------------------------------------|
D|--10-9s0----5-5-5-x-7-x-(b9)(b9)--------------------|
A|--10-9s0----5-5-5-x-7-x-(b9)(b9)--------------------|
E|--(b9)-8s0----3-3-3-x-5-x-7-7---------------------|

e|------------------------------------------------|
b------------------------------------------------|
G|------------------------(b9)(b9)--------------------|
D|--10-9s0----5-5-5-x-7-x-(b9)(b9)--------------------|
A|--10-9s0----5-5-5-x-7-x-7-7---------------------|
E|--(b9)-8s0----3-3-3-x-5-x-------------------------|

Fill Riff#2 (Play 6x)
e|------------------------------------------------|
b------------------------------------------------|
G|--7-7-4--2-2-----7-7-7--------------------------|
D|--7-7-4--2-2-2---7-7-7-7-7-7-(b9)(b9)(b9)(b9)-----------|
A|--5-5-2--0-0-2---5-5-5-7-7-7-(b9)(b9)(b9)(b9)-----------|
E|-------------0---------5-5-5-7-7-7-7------------|		   
AcordesyTabs.com © 2008 Acordes y Tablaturas para guitarra. Tabs and Chords for guitar. Aviso Legal - Contacto
El uso de este sitio está sujeto a la aceptación de los términos y condiciones (48 usuarios online)