tablaturas, partituras y acordes para guitarra
Busca por banda/artista:
 
y/o título de la canción:
A B C D E F G H I J K L M N O P Q R S T U V W X Y Z 0 1 2 3 4 5 6 7 8 9 / Top 100 tabs
Categorías
Usuarios
usuario:
Darse de alta
password:
Artistas más visitados
Publicidad
TOP acordes y tablaturas de Slayer


Cult
de Slayer
Puntúa este acorde/tab:      
(0.5/5)
Reportar este acorde/tab
  Añadir a tus favoritos
  Imprimir
intro

Eb|--------------------------------------------------------------------------------|
Bb|--------------------------------------------------------------------------------|
F#|--------------------------------------------------------------------------------|
C#|--------------------------------------------------------------------------------| 
x 3
G#|---8-7-----7-7-7------8-7-------10-10-10-------8-7-----7-7-7-----8-7-----10-(b9)8-|
C#|-0------0----------0--------0--------------0--------0---------0-------0---------|

  distorsion
   gt1
Eb|---------------------------------------------------------------------------------|
Bb|---------------------------------------------------------------------------------|
F#|---------------------------------------------------------------------------------|
C#|---------------------------------------------------------------------------------|
G#|---8-7-----7-7-7------8-7-------10-10-10-------8-7-----7-7-7------8-7-----10-(b9)8-|
C#|-0------0----------0--------0---------------0-------0----------0-------0---------|

   gt2
Eb|-----------------------------------------------------------------------------------|
Bb|-----------------------------------------------------------------------------------|
F#|-----------------------------------------------------------------------------------|
C#|--------------------------------------------------------------------------12-11-10-|
G#|---8-7-----7-7-7------8-7-------10-10-10-------8-7-----7-7-7------8-7--------------|
C#|-0-----0-0--------0-0------0-0---------------0-----0-0--------0-0-------0----------|

   gt1
Eb|--------------------------------------------------------------------------------|
Bb|--------------------------------------------------------------------------------|
F#|--------------------------------------------------------------------------------|
C#|--------------------------------------------------------------------------------|
G#|---8-7-----7-7-7------8-7-------10-10-10-------8-7-----7-7-7------8-7-----5-4-3-|
C#|-0------0----------0--------0---------------0-------0----------0-------0--3-2-1-|

   gt2
Eb|--------------------------------------------------------------------------------|
Bb|--------------------------------------------------------------------------------|
F#|--------------------------------------------------------------------------------|
C#|--------------------------------------------------------------------------------|
G#|---8-7-----7-7-7------8-7-------10-10-10-------8-7-----7-7-7------8-7-----5-4-3-|
C#|-0------0----------0--------0---------------0-------0----------0-------0--3-2-1-|


Eb|---------------------------------------------------|
Bb|---------------------------------------------------|
F#|---------------------------------------------------|
C#|---------------------------------------------------|
G#|-2--5--4--2--2-2-2-2-2-2--2--6--5----------4-----3-|
C#|-0--3--2--0--0-0-0-0-0-0--0--4--3--0--0-0--2--0--1-|

Eb|---------------------------------------------------|
Bb|---------------------------------------------------|
F#|---------------------------------------------------|
C#|---------------------------------------------------|
G#|-2--6--5--2--2-2-2-2-2-2--2--5--4----------4-----3-|
C#|-0--4--3--0--0-0-0-0-0-0--0--3--2--0--0-0--2--0--1-|

Eb|---------------------------------------------------|
Bb|---------------------------------------------------|
F#|---------------------------------------------------|
C#|---------------------------------------------------|
G#|-2--5--4--2--2-2-2-2-2-2--2--6--5----------4-----3-|
C#|-0--3--2--0--0-0-0-0-0-0--0--4--3--0--0-0--2--0--1-|

Eb|---------------------------------------------------|
Bb|---------------------------------------------------|
F#|---------------------------------------------------|
C#|---------------------------------------------------|
G#|-2--6--5--2--2-2-2-2-2-2--2--5--4----------4-----3-|
C#|-0--4--3--0--0-0-0-0-0-0--0--3--2--0--0-0--2--0--1-|

Eb|----------------------------------------------------------------------|
Bb|----------------------------------------------------------------------|
F#|----------------------------------------------------------------------|
C#|----------------------------------------------------------------------|
G#|---------------------------3-5------------------------------------5-4-|
C#|-0-3p1-00-2p1-000-1p0-000--1-3--0-3p1-00-2p1-000-1p0-000-2p1-000--3-2-|

Eb|-----------------------------------------------------------------------------|
Bb|-----------------------------------------------------------------------------|
F#|-----------------------------------------------------------------------------|
C#|-----------------------------------------------------------------------------|
G#|----------------------------------3-5------------------------------------5-4-|
C#|-0-3p1-00-2p1-000-1p0-000-2p1-000-1-3--0-3p1-00-2p1-000-1p0-000-2p1-000--3-2-|


verse
  oppression is the holy law in god i distrust a talent monument of fall to 
ashes to dust
   is what i agree the master plan the bible is where it all begins this 
propaganda shall
   dispare since the bible is everywhere
Eb|---------------------------------------------------------|
Bb|---------------------------------------------------------|
F#|---------------------------------------------------------|
C#|---------------------------------------------------------|
G#|----------------------------------------------5---4---5--|
C#|-000000000000-0-4p3h4-0-1-3--000000000000---0-3-0-2-0-3--|


   religion is hate religion is fear religion is war
Eb|-----------------------------------------------------------------------------------|
Bb|-----------------------------------------------------------------------------------|
F#|-----------------------------------------------------------------------------------|
C#|-----------------------------------------------------------------------------------|
G#|-----------------------------------------------------------------------------------|
C#|-111111111-4-3333333--111111111-4-3333333--111111111-4-3333333-111111111-4-3333333-|


   religion is rape religion is obscene religion is a whore
Eb|-----------------------------------------------------------------------------|
Bb|-----------------------------------------------------------------------------|
F#|-----------------------------------------------------------------------------|
C#|-----------------------------------------------------------------------------|
G#|-------------------------------------------------------------------------6-5-|
C#|-111111111-4-3333333--111111111-4-3333333--111111111-4-3333333-111111111-4-3-|


    the ..... of jesus christ there never was a sacrifice the man hides the 
truth that
    exists the world becomes a .... i made my choice 6 6 6
Eb|----------------------------------------|
Bb|----------------------------------------|
F#|----------------------------------------|
C#|----------------------------------------|
G#|----------------------------------------|
C#|-000000-3-444444-000-333333-0-444444444-|


  solo 1
Eb|-22b--22b-22-22-22-22-1(b9)1(b9)1(b9)20-20-20-22-22-22-1(b9)20-1(b9)------------------------|
Bb|----------------------------------------------------------22-1(b9)20-22-20-1(b9)20-1(b9)|
F#|----------------------------------------------------------------------------------|
C#|----------------------------------------------------------------------------------|
G#|----------------------------------------------------------------------------------|
C#|----------------------------------------------------------------------------------|

Eb|----------------------------------------17-17-17-18-20-18-17-18-17----------------------|
Bb|-------------------------------------------------------------------20-17-18-20-18-17-18-|
F#|-22-1(b9)20-22-20-1(b9)20-1(b9)----1(b9)21b-----------------------------------------------------|
C#|--------------------------21------------------------------------------------------------|
G#|----------------------------------------------------------------------------------------|
C#|----------------------------------------------------------------------------------------|

Eb|-----------------------------------------------------------------------------|
Bb|-17--------------------------------------------------------------------------|
F#|----1(b9)16-18-1(b9)18-16-18-16--------------------------------------------------|
C#|----------------------------1(b9)16-18-1(b9)18-16-18-16--------------------------|
G#|-----------------------------------------------------1(b9)16-18-1(b9)18-16-18-16-|
C#|-----------------------------------------------------------------------------|

Eb|--------------------------------------------------------------------|
Bb|--------------------------------------------------------18b-18b-18b-|
F#|-------------------------------------------16-18-16-18--18b-18b-18b-|
C#|----------------------------16-18-16-18-1(b9)-------------------------|
G#|-------------16-18-16-18-1(b9)----------------------------------------|
C#|-1(b9)16-18-1(b9)-------------------------------------------------------|

Eb|---------------------------------------------------------|
Bb|---------------------------------------------------------|
F#|---------------------------------------------------------|
C#|---------------------------------------------------------|
G#|----------------------------------------------5---4---5--|
C#|-000000000000-0-4p3h4-0-1-3--000000000000---0-3-0-2-0-3--|

Eb|-----------------------------------------------------------------------------------|
Bb|-----------------------------------------------------------------------------------|
F#|-----------------------------------------------------------------------------------|
C#|-----------------------------------------------------------------------------------|
G#|-----------------------------------------------------------------------------------|
C#|-111111111-4-3333333--111111111-4-3333333--111111111-4-3333333-111111111-4-3333333-|

Eb|-----------------------------------------------------------------------------|
Bb|-----------------------------------------------------------------------------|
F#|-----------------------------------------------------------------------------|
C#|-----------------------------------------------------------------------------|
G#|-------------------------------------------------------------------------6-5-|
C#|-111111111-4-3333333--111111111-4-3333333--111111111-4-3333333-111111111-4-3-|

Eb|----------------------------------------|
Bb|----------------------------------------|
F#|----------------------------------------|
C#|----------------------------------------|
G#|----------------------------------------|
C#|-000000-3-444444-000-333333-0-444444444-|

Eb|---------------------------------------------------|
Bb|---------------------------------------------------|
F#|---------------------------------------------------|
C#|---------------------------------------------------|
G#|-2--5--4--2--2-2-2-2-2-2--2--6--5----------4-----3-|
C#|-0--3--2--0--0-0-0-0-0-0--0--4--3--0--0-0--2--0--1-|

Eb|---------------------------------------------------|
Bb|---------------------------------------------------|
F#|---------------------------------------------------|
C#|---------------------------------------------------|
G#|-2--6--5--2--2-2-2-2-2-2--2--5--4----------4-----3-|
C#|-0--4--3--0--0-0-0-0-0-0--0--3--2--0--0-0--2--0--1-|

Eb|---------------------------------------------------|
Bb|---------------------------------------------------|
F#|---------------------------------------------------|
C#|---------------------------------------------------|
G#|-2--5--4--2--2-2-2-2-2-2--2--6--5----------4-----3-|
C#|-0--3--2--0--0-0-0-0-0-0--0--4--3--0--0-0--2--0--1-|

Eb|---------------------------------------------------|
Bb|---------------------------------------------------|
F#|---------------------------------------------------|
C#|---------------------------------------------------|
G#|-2--6--5--2--2-2-2-2-2-2--2--5--4----------4-----3-|
C#|-0--4--3--0--0-0-0-0-0-0--0--3--2--0--0-0--2--0--1-|

Eb|----------------------------------------------------------------------|
Bb|----------------------------------------------------------------------|
F#|----------------------------------------------------------------------|
C#|----------------------------------------------------------------------|
G#|---------------------------3-5------------------------------------5-4-|
C#|-0-3p1-00-2p1-000-1p0-000--1-3--0-3p1-00-2p1-000-1p0-000-2p1-000--3-2-|

Eb|-----------------------------------------------------------------------------|
Bb|-----------------------------------------------------------------------------|
F#|-----------------------------------------------------------------------------|
C#|-----------------------------------------------------------------------------|
G#|----------------------------------3-5------------------------------------5-4-|
C#|-0-3p1-00-2p1-000-1p0-000-2p1-000-1-3--0-3p1-00-2p1-000-1p0-000-2p1-000--3-2-|

   solo 2
Eb|---------------------------------------------------------------------------------------|
Bb|---------------------------------------------------------------------------------------|
F#|-12t5-12t5-12t5-12t5-12t5--14t5-14t5-14t5-14t5-14t5--17t5-17t5-17t5-17t5----9bf--9b--0-|
C#|---------------------------------------------------------------------------------------|
G#|---------------------------------------------------------------------------------------|
C#|---------------------------------------------------------------------------------------|

    bar
Eb|------------------------------------------------------------------------22bf-22b~~-|
Bb|-----/-------20-22-23-----20-22-23------20-22-23------20-22-23-----20--------------|
F#|-(0)/----/22-----------22-----------22------------22------------22-----------------|
C#|-----------------------------------------------------------------------------------|
G#|-----------------------------------------------------------------------------------|
C#|-----------------------------------------------------------------------------------|

Eb|-1(b9)1(b9)1(b9)20-20-20-22-22-22-1(b9)20-1(b9)------------------------|
Bb|-------------------------------------22-1(b9)20-22-20-1(b9)20-1(b9)|
F#|-------------------------------------------------------------|
C#|-------------------------------------------------------------|
G#|-------------------------------------------------------------|
C#|-------------------------------------------------------------|

                                                                       bar
Eb|----------------------------------------------------------------------/---------------|
Bb|------------------------------------------------------------5-6-5----/----5b-5b-5b-5b-|
F#|-22-1(b9)20-22-20-1(b9)20-1(b9)----19/-----5~~~-----5-6-8-6-5------------0/-----7b-7b-7b-7b-|
C#|--------------------------21---------------7-------------7----------------------------|
G#|--------------------------------------------------------------------------------------|
C#|--------------------------------------------------------------------------------------|

                                 --------------------------------------
Eb|-----20b-20b-20b-20b-20b--23bf/--23-23-23-23-23-23-23-23-23-23-23-23-------------------|
Bb|-5/--23b-23b-23b-23b-23b-------/-------------------------------------------------------|
F#|--------------------------------/---------------------------------------0-----(0)------|
C#|---------------------------------/-----------------------------------------------------|
G#|----------------------------------/----------------------------------------------------|
C#|-----------------------------------/---------------------------------------------------|

    bar ////////////
Eb|-----------------------------------------------------------------------|
Bb|-----------------------------------------------------------------------|
F#|-(0)-------------------------------------------------------------------|
C#|-----------------------------------------------------------------------|
G#|-----------------------------------------------------------------------|
C#|-----------------------------------------------------------------------|

Eb|---------------------------------------------------------|
Bb|---------------------------------------------------------|
F#|---------------------------------------------------------|
C#|---------------------------------------------------------|
G#|----------------------------------------------5---4---5--|
C#|-000000000000-0-4p3h4-0-1-3--000000000000---0-3-0-2-0-3--|

Eb|-----------------------------------------------------------------------------------|
Bb|-----------------------------------------------------------------------------------|
F#|-----------------------------------------------------------------------------------|
C#|-----------------------------------------------------------------------------------|
G#|-----------------------------------------------------------------------------------|
C#|-111111111-4-3333333--111111111-4-3333333--111111111-4-3333333-111111111-4-3333333-|

Eb|-----------------------------------------------------------------------------|
Bb|-----------------------------------------------------------------------------|
F#|-----------------------------------------------------------------------------|
C#|-----------------------------------------------------------------------------|
G#|-------------------------------------------------------------------------6-5-|
C#|-111111111-4-3333333--111111111-4-3333333--111111111-4-3333333-111111111-4-3-|

Eb|----------------------------------------|
Bb|----------------------------------------|
F#|----------------------------------------|
C#|----------------------------------------|
G#|----------------------------------------|
C#|-000000-3-444444-000-333333-0-444444444-|

Eb|---------------------------------------------------------|
Bb|---------------------------------------------------------|
F#|---------------------------------------------------------|
C#|---------------------------------------------------------|
G#|----------------------------------------------5---4---5--|
C#|-000000000000-0-4p3h4-0-1-3--000000000000---0-3-0-2-0-3--|

  solo 3
Eb|-17-18-20--17-18-20--17-----------------------------------------------------------------|
Bb|-------------------------20-17-18-20-17-18-20-------------------------------------------|
F#|-----------------------------------------------1(b9)16-18-1(b9)16-18-1(b9)16------------------|
C#|-----------------------------------------------------------------------1(b9)16-18-1(b9)18-16|
G#|----------------------------------------------------------------------------------------|
C#|----------------------------------------------------------------------------------------|

Eb|----------------------------------------------------------------------------------------|
Bb|----------------------------------------------------------------------------------------|
F#|----------------------------------------------------------------------------16-18-1(b9)16-|
C#|----------------------------------------------------------16-18-1(b9)16-18-1(b9)------------|
G#|-1(b9)16-18-1(b9)18-16----------------------16-18-1(b9)16-18-1(b9)------------------------------|
C#|-------------------1(b9)16-18-1(b9)16-18-1(b9)------------------------------------------------|

Eb|-----------------17----------------17----------------17-18-20-18-17--18-1(b9)23-18-1(b9)23-|
Bb|--------17-18-20----20-18-17-18-20----20-18-17-18-20-----------------------------------|
F#|-18-1(b9)--------------------------------------------------------------------------------|
C#|---------------------------------------------------------------------------------------|
G#|---------------------------------------------------------------------------------------|
C#|---------------------------------------------------------------------------------------|

Eb|-18-1(b9)23-18-1(b9)23-1(b9)18--17b-17b-17b----------------------------------|
Bb|--------------------------20b-20b-20b----------------------------------|
F#|-----------------------------------------------------------------------|
C#|-----------------------------------------------------------------------|
G#|-----------------------------------------------------------------------|
C#|-----------------------------------------------------------------------|		   
AcordesyTabs.com © 2008 Acordes y Tablaturas para guitarra. Tabs and Chords for guitar. Aviso Legal - Contacto
El uso de este sitio está sujeto a la aceptación de los términos y condiciones (22 usuarios online)