tablaturas, partituras y acordes para guitarra
Busca por banda/artista:
 
y/o título de la canción:
A B C D E F G H I J K L M N O P Q R S T U V W X Y Z 0 1 2 3 4 5 6 7 8 9 / Top 100 tabs
Categorías
Usuarios
usuario:
Darse de alta
password:
Artistas más visitados
Publicidad
TOP acordes y tablaturas de Paul simon


Graceland
de Paul simon
Puntúa este acorde/tab:      
(0.3/5)
Reportar este acorde/tab
  Añadir a tus favoritos
  Imprimir
Intro
e---------|--------------|
b---(b9)----|--(b9)-10--(b9)---|
g---(b9)----|--(b9)-(b9)--(b9)---|
d---(b9)----|--(b9)-(b9)--(b9)---|
a--/7-----|--7--7---7----|
e---------|--------------|

Verse:
e---------5-----4-----7---|
b---(b9)----5-----5-----6---|
g---(b9)----6-----6-----8---|
d---(b9)----7-----6-----(b9)--|
a---7-----7-----4-----(b9)--|
e---0-----5-----------7---|
    E     A    Dbm    B
Play verse once without lyrics


The Mississippi Delta was 
E
shining like a National guitar.
                           A
I am following the river down the
     Dbm
Highway through the cradle of the Civil war
                                        B

Chorus
e--------------|------------------------------|
b--2-2-p0---0--|--0-------0--0----------------|
g--2-2----2-0--|--1--2--1-1--1----------------|
d--2-2------2--|--2--4--2-2--2----------------|
a--0-0------2--|----------2--0----------------|
e-----------0--|----------0--0--0--3--2--0--2-|
pickup: A   Em |  Em         E               B

e--------------|--------------------4-----2---| (play pickup again
b--2-2-p0---0--|--0-------0--0----5-----4-----|  before going back
g--2-2----2-0--|--1--2--1-1--1--4-----4-------|  to the verse)
d--2-2------2--|--2--4--2-2--2----------------|
a--0-0------2--|----------2--0----------------|
e-----------0--|----------0--0----------------|
   A        Em   Em         E               B
I'm going to Graceland. Graceland, Memphis, Tennessee,
I'm going to Gracland.
Poor boys and pilgrims with families
and we are going to Graceland.
My traveling companion is nine years old
He is the child of my first marriage,
But I've reason to believe we both will be received
In Graceland		   
AcordesyTabs.com © 2008 Acordes y Tablaturas para guitarra. Tabs and Chords for guitar. Aviso Legal - Contacto
El uso de este sitio está sujeto a la aceptación de los términos y condiciones (51 usuarios online)