tablaturas, partituras y acordes para guitarra
Busca por banda/artista:
 
y/o título de la canción:
A B C D E F G H I J K L M N O P Q R S T U V W X Y Z 0 1 2 3 4 5 6 7 8 9 / Top 100 tabs
Categorías
Usuarios
usuario:
Darse de alta
password:
Artistas más visitados
Publicidad
TOP acordes y tablaturas de The animals


Estás en: Inicio > Letra T > Acordes y tablaturas de The animals > San francisco nights
San francisco nights
de The animals
Puntúa este acorde/tab:      
(0.3/5)
Reportar este acorde/tab
  Añadir a tus favoritos
  Imprimir
Introdução.

e|------------|-----------------|
b|------------|-----------------|
G|------------|-------------5~~-|
D|-2--5--4--2-|-2--5--4--2------|
A|-2--5--4--2-|-2--5--4--2------|
E|----3--2----|----3--2---------|

Essa parte se repete 8x durante a narração:

e|--------------|---------------|
b|--------------|---------------|
G|-----------(b9)-|---------7--(b9)-|
D|--5--7--(b9)----|--11--(b9)-------|
A|--------------|---------------|
E|--------------|---------------|

Narração:

This following program is dedicated to the city and people of San 
Francisco 
Who may not know it, but they are beautiful - and so is their city 
This is a very personal song, so if the viewer cannot understand it  
particularly those of you who are European residents - save up 
all your bread and fly Trans-Love Airways to San Francisco, USA 
Then maybe you'll understand the song 
It will be worth it - if not for the sake of this song 
But for the sake of your own peace of mind

Baixo: Feito antes da introdução.

G|-------|
D|-------|
A|---0-2-|
E|-3-----|

Introdução:

 
e|-8-----7/8-7-----5/7-5----3--3/5-3----3-| 
B|-----8---------8--------5-----------5---| 
G|---(b9)--------(b9)-------------------------| 
D|----------------------------------------| 
A|----------------------------------------| 
E|----------------------------------------| 

Canto 1:
 
e|-8/10-8------7/8-7-----5/7-5----3--3/5-3----3-| 
B|----------8---------8---------5-----------5---| 
G|--------(b9)--------(b9)--------------------------| 
D|----------------------------------------------| 
A|----------------------------------------------| 
E|----------------------------------------------|  
      C              Em  Am           G 
      Strobe light's beam  creates dreams 
	
 
e|-8/10-8------7/8-7-----5/7-5----3--3/5-3----3-| 
B|----------8---------8---------5-----------5---| 
G|--------(b9)--------(b9)--------------------------| 
D|----------------------------------------------| 
A|----------------------------------------------| 
E|----------------------------------------------| 
         C       Em    Am          G  
         Walls move    minds  do  too 


e|---10----10----------13----13--12----------------| 
B|---0(b9)-(b9)------------12-12-----11----8---8---8---| 
G|---11----------------13--------13-(b9)-------(b9)----| 
D|--------------------------------------10------10-| 
A|-------------------------------------------------| 
E|-------------------------------------------------| 
     D                  F        C 
     On a warm San Franciscan night 


e|------------10---10-------13----13--12-----------| 
B|-8----8-----0(b9)(b9)---------12-12-----11----8------| 
G|-(b9)-(b9)--(b9)--11------------13--------13--(b9)--(b9)---| 
D|-10----------------------------------------------| 
A|-------------------------------------------------| 
E|-------------------------------------------------| 
   C          Dm            F         C 
   Old child, young child, feel all   right 


e|---10----10----------13----13--12----------------| 
B|---0(b9)-(b9)------------12-12-----11----8---8-------| 
G|---11----------------13--------13-(b9)-------(b9)----| 
D|--------------------------------------10---------| 
A|-------------------------------------------------| 
E|-------------------------------------------------|       
      D                 F        C 
     On a warm San Franciscan   night 

 
Canto 2:
 
e|--8/10-8/10-8------7/8-7-------5/7-5----3--3/5-3----3-| 
B|----------------8----------8---------5------------5---| 
G|--------------(b9)--------(b9)----------------------------| 
D|------------------------------------------------------| 
A|------------------------------------------------------| 
E|------------------------------------------------------|  
               C        Em     Am          G
	       Angels   sing,    leather  wings 

	
e|-8/10-8------7/8-7-----5/7-5----3--3/5-3----3---| 
B|----------8---------8---------5-----------5---5-| 
G|--------(b9)--------(b9)----------------------------| 
D|------------------------------------------------| 
A|------------------------------------------------| 
E|------------------------------------------------|
        C          Em         Am         G
        Jeans of blue, Harley-Davidsons too 
	

e|---10----10----------13----13--12----------------| 
B|---0(b9)-(b9)------------12-12-----11----8---8---8---| 
G|---11----------------13--------13-(b9)-------(b9)----| 
D|--------------------------------------10------10-| 
A|-------------------------------------------------| 
E|-------------------------------------------------| 
     D                  F        C 
     On a warm San Franciscan night 


e|------------10---10-------13----13--12-----------| 
B|-8----8-----0(b9)(b9)---------12-12-----11----8------| 
G|-(b9)-(b9)--(b9)--11------------13--------13--(b9)--(b9)---| 
D|-10----------------------------------------------| 
A|-------------------------------------------------| 
E|-------------------------------------------------| 
   C            Dm           F        C 
   Old anjels, young anjels, feel all right 


e|---10----10----------13----13--12-----------------| 
B|---0(b9)-(b9)------------12-12-----11----8---8-----8--| 
G|---11----------------13--------13-(b9)-------(b9)(b9)---| 
D|--------------------------------------10----------| 
A|--------------------------------------------------| 
E|--------------------------------------------------|       
      D                 F        C 
     On a warm San Franciscan   night 

	 
Ponte: 

e|-08----8-------8------|
b|-0(b9)-------(b9)------6--|
G|-10-------------------|
D|----------------------|
A|----------------------|
E|----------------------|
   Fm 
   wasn't born there

e|--------------------------------|
b|-5-------------0--------8-5-----|
G|----------------------------7---|
D|--------------------------------|
A|--------------------------------|
E|--------------------------------| 
   Em
   Perhaps I'll die there 

e|-5--------5-----------5------7---7---7----7----|
b|-6---6----------6---------8----6------------8--|
G|-5----------5------5---------------7-----------|
D|---------------------------------------(b9)------|
A|-----------------------------------------------|
E|-----------------------------------------------|
   F                        G    F   Dm  B    G
   There's noplace left to go 
 

San Francisco... 


Baixo: Feito antes de começar o solo.

G|-------|
D|-------|
A|---0-2-|
E|-3-----|

Solo :Este solo é feito com duas guitarras que fazem a 1° e a 2° parte juntos. 

guitarra 1: Primeira parte

   C                     Em                                         
e|-12-13-15-13-12-13-15-13----12-13-12----12-13-12-| 
b|-------------------------15----------15----------| 
G|-------------------------------------------------| 
D|-------------------------------------------------| 
A|-------------------------------------------------| 
E|-------------------------------------------------| 
 
guitarra 2: Primeira parte 
             
E|-------12----------12----------------------------| 
B|-13-15----15-13-15----15-12-13-15-13-12-13-15-13-| 
G|-------------------------------------------------| 
D|-------------------------------------------------| 
A|-------------------------------------------------| 
E|-------------------------------------------------| 
 
 
guitarra 1: Segunda parte 
 
   Am                      G                                  
e|-------12----------12----------------------------| 
b|-13-15----15-13-15----15-12----------------------| 
G|-------------------------12----------------------| 
D|-------------------------------------------------| 
A|-------------------------------------------------| 
E|-------------------------------------------------| 
 
guitarra 2: Segunda parte 
 
e|-------------------------------------------------| 
b|----13-15-13----13----13-------------------------| 
G|-14----------14----------12----------------------| 
D|-------------------------12----------------------| 
A|-------------------------------------------------| 
E|-------------------------------------------------| 

Depois do Solo:

e|-------------------------------------------------|
b|-3--8--7--6--10--5---3--6-5-1-08----8--6/4--1----|
G|----7--7-----0(b9)-6-6----5-5-0-10-10----7/5--0----|
D|-------------------------------------------------|
A|-------------------------------------------------|
E|-------------------------------------------------|


e|--------------------------------------------------|
b|-8-8/10--7-11/10-6-8-8---8----3-3-6-6--5/6/5--3-5-|
G|---9/11--------------(b9)(b9)--(b9)-4-4-7-7--5/6/5--5-5-|
D|--------------------------------------------------|
A|--------------------------------------------------|
E|--------------------------------------------------|


Canto 3:
 
e|-8/10-8------7/8-7-----5/7-5----3--3/5-3----3-| 
B|----------8---------8---------5-----------5---| 
G|--------(b9)--------(b9)--------------------------| 
D|----------------------------------------------| 
A|----------------------------------------------| 
E|----------------------------------------------|  
           C       Em     Am          G
           Cop's face is filled with haight 

 
e|-8/10-8------7/8-7-----5/7-5----3--3/5-3----3-| 
B|----------8---------8---------5-----------5---| 
G|--------(b9)--------(b9)--------------------------| 
D|----------------------------------------------| 
A|----------------------------------------------| 
E|----------------------------------------------|  
    C         Em      Am                  G
    Heavens above, he's on a street called Love 


e|---10----10----------13----13--12----------------| 
B|---0(b9)-(b9)------------12-12-----11----8---8---8---| 
G|---11----------------13--------13-(b9)-------(b9)----| 
D|--------------------------------------10------10-| 
A|-------------------------------------------------| 
E|-------------------------------------------------| 
     D                 F         C    
     When   will  they ever    learn 


e|------------10---10-------13----13--12-----------| 
B|-8----8-----0(b9)(b9)---------12-12-----11----8------| 
G|-(b9)-(b9)--(b9)--11------------13--------13--(b9)--(b9)---| 
D|-10----------------------------------------------| 
A|-------------------------------------------------| 
E|-------------------------------------------------| 
   C          Dm            F         C 
   Old cop,   young cop     feel all  right 


e|---10----10----------13----13--12-----------------| 
B|---0(b9)-(b9)------------12-12-----11----8---8-----8--| 
G|---11----------------13--------13-(b9)-------(b9)(b9)---| 
D|--------------------------------------10----------| 
A|--------------------------------------------------| 
E|--------------------------------------------------|       
      D                 F        C 
     On a warm San Franciscan   night 

Ponte 2: 
 

e|-08----8-------8---------|
b|-0(b9)-------(b9)---------6--|
G|-10----------------------|
D|-------------------------|
A|-------------------------|
E|-------------------------|
   Fm 
   The children are cool

e|--------------0-----------------|
b|-5---------------------8-5------|
G|----------------------------7---|
D|--------------------------------|
A|--------------------------------|
E|--------------------------------| 
   Em
   They don't raise fools 

e|-5--------5-----------5------------7---7---7----7----|
b|-6---6----------6---------------8----6------------8--|
G|-5----------5------5---------------------7-----------|
D|----------------------------------------------(b9)-----|
A|-----------------------------------------------------|
E|-----------------------------------------------------|
   F                              G    F   Dm   B   G 
   It's an American dream Includes Indians, too   


G|-------|
D|-------|
A|---0-2-|
E|-3-----|


Solo :

guitarra 1: Primeira parte

   C                     Em                                         
e|-12-13-15-13-12-13-15-13----12-13-12----12-13-12-| 
b|-------------------------15----------15----------| 
G|-------------------------------------------------| 
D|-------------------------------------------------| 
A|-------------------------------------------------| 
E|-------------------------------------------------| 
 
guitarra 2: Primeira parte 
             
E|-------12----------12----------------------------| 
B|-13-15----15-13-15----15-12-13-15-13-12-13-15-13-| 
G|-------------------------------------------------| 
D|-------------------------------------------------| 
A|-------------------------------------------------| 
E|-------------------------------------------------| 
 
 
guitarra 1: Segunda parte 
 
   Am                      G                                  
e|-------12----------12----------------------------| 
b|-13-15----15-13-15----15-12----------------------| 
G|-------------------------12----------------------| 
D|-------------------------------------------------| 
A|-------------------------------------------------| 
E|-------------------------------------------------| 
 
guitarra 2: Segunda parte 
 
e|-------------------------------------------------| 
b|----13-15-13----13----13-------------------------| 
G|-14----------14----------12----------------------| 
D|-------------------------12----------------------| 
A|-------------------------------------------------| 
E|-------------------------------------------------| 

Final:
	
e|-------------------------------------------------|
b|-8/6--3-3--8/10--10--6--6/4--1--1--1/5......-----|
G|-9/7----0--9/11--11-----7/5--0-----0-------------|
D|-------------------------------------------------|
A|-------------------------------------------------|
E|-------------------------------------------------|		   
AcordesyTabs.com © 2008 Acordes y Tablaturas para guitarra. Tabs and Chords for guitar. Aviso Legal - Contacto
El uso de este sitio está sujeto a la aceptación de los términos y condiciones (11 usuarios online)