tablaturas, partituras y acordes para guitarra
Busca por banda/artista:
 
y/o título de la canción:
A B C D E F G H I J K L M N O P Q R S T U V W X Y Z 0 1 2 3 4 5 6 7 8 9 / Top 100 tabs
Categorías
Usuarios
usuario:
Darse de alta
password:
Artistas más visitados
Publicidad
TOP acordes y tablaturas de Slayer


Jihad
de Slayer
Puntúa este acorde/tab:      
(0.2/5)
Reportar este acorde/tab
  Añadir a tus favoritos
  Imprimir
Tuning: Eb Ab Db Gb Bb eb
4/4
Riff 1 (intro)

|--------------------------------||
|-----12--12--12--15--15--11-11--||
|--(b9)----------------------------||
|--------------------------------||
|--------------------------------||
|--------------------------------||

|--------------------------------||
|--------------------------------||
|--------------------------------||
|--------------------------------||
|--------------------------------||
|--0--0--0--0--0--0--0--0--0--0--||

Riff 2 (intro)

|-----12--12--12--15--15--11--11--||
|-----12--12--12--15--15--11--11--||
|--(b9)-----------------------------||
|--(b9)-----------------------------||
|---------------------------------||
|---------------------------------||

|---------------------------------||
|---------------------------------||
|---------------------------------||
|--2--2--2--2--2--2--2--2--2--2---||
|--2--2--2--2--2--2--2--2--2--2---||
|--0--0--0--0--0--0--0--0--0--0---||

Riff 3 (intro)

|--------------------|----------------------|
|--------------------|----------------------|
|--------------------|----------------------|
|--------------------|---------8------------|
|----7-8-----6-------|--7-(b9)10---10-(b9)8-----|
|--0-----(b9)8---10-6--|------------------10--|

|--------------------|----------------------|
|--------------------|----------------------|
|--------------------|----------------------|
|--------------------|---------(b9)-----------|
|----7-8-----6-------|--7-(b9)10---10-(b9)------|
|--0-----(b9)8---10-6--|----------------10-(b9)-|

|-------------------|----------------------|
|-------------------|----------------------|
|-------------------|----------------------|
|-------------------|---------8------------|
|----8-7-----7-6----|--7-(b9)10---10-(b9)8-----|
|--0-----(b9)8-----7--|------------------10--|

|-------------------|-----------------------|
|-------------------|-----------------------|
|-------------------|-----------------------|
|-------------------|---------10------------|
|----8-7-----7-6----|--7-(b9)10----10-(b9)------|
|--0-----(b9)8-----7--|-----------------10-(b9)-|

3/4
|---------------------------|
|---------------------------|
|---------------------------|
|--2---------2-2-------2----|
|--2-2-------2-2-------2----|
|--0-0-0--0--0-0-0--0--0----|

Riff 4 (verse1)

|---------------------------------------------------|
|---------------------------------------------------|
|---------------------------------------------------|
|---2-2-2-2-2-2-2-2-2-2-2-2-2-2-2-2-2-2--2--2--2-2--|
|---2-2-2-2-2-2-2-2-2-2-2-2-2-2-2-2-2-2--2--2--2-2--|
|---0-0-0-0-0-0-0-0-0-0-0-0-0-0-0-0-0-0--0--0--0-0--|

Riff 5 (verse1)

|------------------------------------------------------|
|------------------------------------------------------|
|------------------------------------------------------|
|--5-5-5-5-5-5-5-5-5--5-5-5--5-5-5-5-5-5-5-5-5--5-5-5--|
|--5-5-5-5-5-5-5-5-5--5-5-5--5-5-5-5-5-5-5-5-5--5-5-5--|
|--3-3-3-3-3-3-3-3-3--3-3-3--3-3-3-3-3-3-3-3-3--3-3-3--|

Riff 6 (verse1)

|-------------------------------------------------------------------------------|
|-------------------------------------------------------------------------------|
|-------------------------------------------------------------------------------|
|---5--5--5--5--5--5--5--5--5---5--5--5---5--5--5--5--5--5--5--5--5---5--5--5---|
|---5--5--5--5--5--5--5--5--5---5--5--5---5--5--5--5--5--5--5--5--5---5--5--5---|
|---3--3--3--3--3--3--3--3--3---3--3--3---3--3--3--3--3--3--3--3--3---3--3--3---|

|-------------------------------------------------------------------------------|
|-------------------------------------------------------------------------------|
|-------------------------------------------------------------------------------|
|--11-11-11-11-11-11-11-11-11--11-11-11--11-11-11-11-11-11-11-11-11--11-11-11---|
|--11-11-11-11-11-11-11-11-11--11-11-11--11-11-11-11-11-11-11-11-11--11-11-11---|
|---(b9)-(b9)-(b9)-(b9)-(b9)-(b9)-(b9)-(b9)-(b9)--(b9)-(b9)-(b9)--(b9)-(b9)-(b9)-(b9)-(b9)-(b9)-(b9)-(b9)-(b9)--(b9)-(b9)-(b9)--|

riff 7 (chorus)

|------------------------------------|
|------------------------------------|
|------------------------------------|
|------------------------------------|
|--1-------2-------3--------1--------|
|----3-2-1---3-2-1----3-2-1---3-2-1--|

Riff 8 (verse2)

|----------------------------------------6---|
|------------------------------------8-7-----|
|----------------------------------5---------|
|--2-2-2-2--2-2-2--2-2-2--2-2-2-2------------|
|--2-2-2-2--2-2-2--2-2-2--2-2-2-2------------|
|--0-0-0-0--0-0-0--0-0-0--0-0-0-0------------|

Riff 9 (verse2)

|----------------------------------------6----|
|------------------------------------8-7---8--|
|----------------------------------5----------|
|--2-2-2-2--2-2-2--2-2-2--2-2-2-2-------------|
|--2-2-2-2--2-2-2--2-2-2--2-2-2-2-------------|
|--0-0-0-0--0-0-0--0-0-0--0-0-0-0-------------|

Riff 10

|-----------------------------------|-------------------------|
|-----------------------------------|-------------------------|
|--7-6-5-5-5-7-7-7-6-6-6-3---7--|--6-5-5-5-7-7-7-6-6-6-3--|
|--7-6-5-5-5-7-7-7-6-6-6-3---7--|--6-5-5-5-7-7-7-6-6-6-3--|
|--5-4-3-3-3-5-5-5-4-4-4-1---5--|--4-3-3-3-5-5-5-4-4-4-1--|
|-----------------------------------|-------------------------|

Solo

|--12-14-15-12-14-15-12-14-15-12-14-15--|--15-17-18-15-17-18-15-17-18-15-17-18--|
|---------------------------------------|---------------------------------------|
|---------------------------------------|---------------------------------------|
|---------------------------------------|---------------------------------------|
|---------------------------------------|---------------------------------------|
|---------------------------------------|---------------------------------------|

|--11-12-14-11-12-14-11-12-14-11-12-14--|--12-14-12-----------------|
|---------------------------------------|-----------14-12-11--------|
|---------------------------------------|--------------------14-----|
|---------------------------------------|---------------------------|
|---------------------------------------|---------------------------|
|---------------------------------------|---------------------------|

   1/2                                    1/2                 1
|---------------|--------------|------------------------|---------------/12h15---|
|---------------|--------------|------------------------|------------------------|
|--11bu--11--(b9)-|--8-----------|--(b9)--11--11bu-br--8----|--(8)bu-----------------|
|---------------|------10---(b9)-|------------------------|------------------------|
|---------------|--------------|------------------------|------------------------|
|---------------|--------------|------------------------|------------------------|

|--1(b9)15-17-15-12-15-1(b9)15-17-15-12-15-1(b9)17-15-12-15-1(b9)17-15-12-15--|
|---------------------------------------------------------------------|
|---------------------------------------------------------------------|
|---------------------------------------------------------------------|
|---------------------------------------------------------------------|
|---------------------------------------------------------------------|

                                      2
|--1(b9)17-15-12-15-1(b9)15-12-19p15-12-----------|
|-----------------------------------17bu------|
|---------------------------------------------|
|---------------------------------------------|
|---------------------------------------------|
|---------------------------------------------|

             1/2                             1/2                  1
|------------12bu---|----12----------|------------|---------------------|
|--9/10--(b9)---------|---------11-|------------|--------------12bu---|
|-------------------|----------------|--(b9)8--10bu-|----10-------11bu---|
|-------------------|----------------|------------|---------------------|
|-------------------|----------------|------------|---------------------|
|-------------------|----------------|------------|---------------------|

                   1           1        w/bar
|---------------|-----------|--------|-----------|
|-----(12)------|--15bu-----|--19bu--|--(19)-----|
|-----(11)------|--14bu-----|--18bu--|--(18)-----|
|---------------|-----------|--------|-----------|
|---------------|-----------|--------|-----------|
|---------------|-----------|--------|-----------|

End riff

|--------------------|--------------------|
|--------------------|--------------------|
|--------------------|--------------------|
|----(b9)8------8------|----(b9)8------8------|
|--------10-(b9)--(b9)8--|--------10-(b9)--8-7--|
|--0-----------------|--0-----------------|

|--------------------|--------------------|
|--------------------|--------------------|
|--------------------|--------------------|
|--2-----------------|--2-----------------|
|--2-----------------|--2-----------------|
|--0-----------------|--0-----------------|		   
AcordesyTabs.com © 2008 Acordes y Tablaturas para guitarra. Tabs and Chords for guitar. Aviso Legal - Contacto
El uso de este sitio está sujeto a la aceptación de los términos y condiciones (19 usuarios online)