tablaturas, partituras y acordes para guitarra
Busca por banda/artista:
 
y/o título de la canción:
A B C D E F G H I J K L M N O P Q R S T U V W X Y Z 0 1 2 3 4 5 6 7 8 9 / Top 100 tabs
Categorías
Usuarios
usuario:
Darse de alta
password:
Artistas más visitados
Publicidad
TOP acordes y tablaturas de Slayer


Estás en: Inicio > Letra S > Acordes y tablaturas de Slayer > Live undead
Live undead
de Slayer
Puntúa este acorde/tab:      
(0.4/5)
Reportar este acorde/tab
  Añadir a tus favoritos
  Imprimir
.  - palm mute                  /  - slide up to
  - slide down to              ~  - vibrato             
h  - hammer on                  b  - bend 
p  - pull off                        Suffixes for bend    
ph - pinch harmonic                      f - full bend    h - half bend
*  - see comment                         r - release      t - tap bend
X  - percussion mute                     ~ - vibrato bend
@  - slight palm mute           () - ghost note, sustained note

Tuning: Eb (Eb,Ab,Db,Gb,Bb,Eb)

Intro.-
|-----------------------------------|
|-----------------------------------|
|-(b9)-----8------------7-------------|
|-(b9)-----8------------7-------------|
|-7------6-----6h9p6--5-------------|
|---0000---00-----------0000-6-5----|
  pm----   --           ----  

Verse (there are a few variations, but it's all w/these notes)-
|--------------------------------------------------|
|--------------------------------------------------|
|--------------------------------------------------|
|--------------------------------------------------|
|-7-----7-----7-----7-----8-----8-----8-----8------|
|---777---777---777---777---888---888---888---888--|
  pm---   ---   ---   ---   ---   ---   ---   ---   

Chorus thingy-
|---------------------------------|
|---------------------------------|
|---------------------------------|
|---------6---6----------8------|
|-7----8--4---4--7----8--6------|
|-5----6-----------5----6---------|

Pre-Chorus thingy-
|--------------------------------------------------------------------|
|--------------------------------------------------------------------|
|--------------------------------------------------------------------|
|--------------------------------------------------------------------|
|------8--------8--------8----6--------8--------8--------8----7-6-7--|
|-0000-6-000000-6-000000-6-00-4---0000-6-000000-6-000000-6-00-5-4-5--|
pm----   ------   ------   --     ----   ------   ------   ---   

Riff that's played w/lead-
|------------------------------|
|------------------------------|
|------------------------------|
|------------------------------|
|-------7h10-7--------7h10-7---|
|-00000--------000000----------|
pm-----        ------		   
AcordesyTabs.com © 2008 Acordes y Tablaturas para guitarra. Tabs and Chords for guitar. Aviso Legal - Contacto
El uso de este sitio está sujeto a la aceptación de los términos y condiciones (24 usuarios online)