tablaturas, partituras y acordes para guitarra
Busca por banda/artista:
 
y/o título de la canción:
A B C D E F G H I J K L M N O P Q R S T U V W X Y Z 0 1 2 3 4 5 6 7 8 9 / Top 100 tabs
Categorías
Usuarios
usuario:
Darse de alta
password:
Artistas más visitados
Publicidad
TOP acordes y tablaturas de Six feet under


Drowning
de Six feet under
Puntúa este acorde/tab:      
(0.2/5)
Reportar este acorde/tab
  Añadir a tus favoritos
  Imprimir
.  - palm mute                           

/  - slide up to                         

  - slide down to 

"  - tremolo note 



TUNING NORMAL: D Tuning(D,G,C,F,A,D) 



Riff A 

|-----------------------------------| 

|-----------------------------------| 

|-----------------------------------| 

|-----------------------------------| 

|---------9"--8"----------7"--6"----| 

|-0"--7"----------0"--5"------------| 

  .   .   .   .   .   .   .   . 



Play Riff A a total of 8 times 



 Riff B 

|------------------| 

|------------------| 

|------------------| 

|-5---4---5---4444-| 

|-3---2---3---2222-| 

|-3---2---3---2222-| 



Play Riff A 4x 



 Riff C 

|-------------------------------------------| 

|-------------------------------------------| 

|-------------------------------------------| 

|-5---4---5-5-5-4---5-5-5-4-4-4-5-5-5-4444--| 

|-3---2---3-3-3-2---3-3-3-2-2-2-3-3-3-2222--| 

|-3---2---3-3-3-2---3-3-3-2-2-2-3-3-3-2222--| 



Play Riff A 4x 



 Riff D                repeat 2x 

|-----------------||---------------------------||------------------------| 

|-----------------||---------------------------||------------------------| 

|-----------------||*-------------------------*||------------------------| 

|-5---4---5-5-5-4-||*-5-5-5-4-4-4-5-5-5-4-4-4-*||-5-5-5-4-4-4-5-5-5-4444-| 

|-3---2---3-3-3-2-||--3-3-3-2-2-2-3-3-3-2-2-2--||-3-3-3-2-2-2-3-3-3-2222-| 

|-3---2---3-3-3-2-||--3-3-3-2-2-2-3-3-3-2-2-2--||-3-3-3-2-2-2-3-3-3-2222-| 





 Riff E 

|----------------|---------------| 

|----------------|---------------| 

|----------------|---------------| 

|----------------|------------4--| 

|-2------5/6-6---|-2------33--2--| 

|-0--00--3/4-4---|-0--00--11-----| 

     ..               .. 



Play Riff E a total of 8 times 

Play Riff D 

Play RIff A 4x 



 Riff F                repeat 2x 

|----------------||---------------------------||----------------------------| 

|----------------||---------------------------||----------------------------| 

|----------------||*-------------------------*||----------------------------| 

|5---4---5-5-5-4-||*-5-5-5-4-4-4-5-5-5-4-4-4-*||-5-5-5-4-4-4-5-5-5-444----2-| 

|3---2---3-3-3-2-||--3-3-3-2-2-2-3-3-3-2-2-2--||-3-3-3-2-2-2-3-3-3-2225-| 

|3---2---3-3-3-2-||--3-3-3-2-2-2-3-3-3-2-2-2--||-3-3-3-2-2-2-3-3-3-2223		   
AcordesyTabs.com © 2008 Acordes y Tablaturas para guitarra. Tabs and Chords for guitar. Aviso Legal - Contacto
El uso de este sitio está sujeto a la aceptación de los términos y condiciones (24 usuarios online)