tablaturas, partituras y acordes para guitarra
Busca por banda/artista:
 
y/o título de la canción:
A B C D E F G H I J K L M N O P Q R S T U V W X Y Z 0 1 2 3 4 5 6 7 8 9 / Top 100 tabs
Categorías
Usuarios
usuario:
Darse de alta
password:
Artistas más visitados
Publicidad
TOP acordes y tablaturas de Def leppard


Animal
de Def leppard
Puntúa este acorde/tab:      
(0.3/5)
Reportar este acorde/tab
  Añadir a tus favoritos
  Imprimir
Intro

guitar1              
     w w w w w w w    
|-------------------|
|-------------------| 
|-------------------|
|-8-8A.H.~----------| 
|-8~~~~~~~----------|
|-6~~~~~~~----------|

When Guitar2 Comes In guitar1 Plays This
|-------------------------------------------------------------------|
|------------------6-6-6-6-6-6-6-6------------------6-6-6-6-6-6-6-6-|
|------------------5-5-5-5-5-5-5-5------------------5-5-5-5-5-5-5-5-|
|-8-8-8-8-8-8-8-8--5-5-5-5-5-5-5-5-8-8-8-8-8-8-8-8--5-5-5-5-5-5-5-5-|
|-8-8-8-8-8-8-8-8--3-3-3-3-3-3-3-3-8-8-8-8-8-8-8-8--3-3-3-3-3-3-3-3-|
|-6-6-6-6-6-6-6-6------------------6-6-6-6-6-6-6-6------------------|
                       w w
|-----------------------------------|
|------------------6-6~~~~----------|
|------------------5-5~~~~----------|
|-8-8-8-8-8-8-8-8--5-5~~~~----------|
|-8-8-8-8-8-8-8-8--3-3~~~~----------|
|-6-6-6-6-6-6-6-6-------------------|

guitar2
0:04                          
|-5-----5-----5---6--5/6^8-|-6-----6-----6---8--6/8^10|
|-5-5-5-5-5-5-5-5-5--5-----|-6-6-6-6-6-6-6-6-6--6-----|
|--------------------------|--------------------------|
|--------------------------|--------------------------|
|--------------------------|--------------------------|
|--------------------------|--------------------------|
                     A.H.
|-8-----8-----8----8^10~|
|-6-6-6-6-6-6-6-6--6----|
|-----------------------|
|-----------------------|
|-----------------------|
|-----------------------|

VERSE1

Guitar1
P.M.
A Wild Ride...
|--------------------------------------------------------|
|-----------------6~~~~----------------------------------|
|-----------------5-5-5-5-5-5-5-5------------------------|X8
|-8-8-8-8-8-8-8-8-5-5-5-5-5-5-5-5------------------------|
|-8-8-8-8-8-8-8-8-3-3-3-3-3-3-3-3------------------------|
|-6-6-6-6-6-6-6-6----------------------------------------|

guitar2 (use lots of reverb)            
|-----------------------------------|
|-6-----6-----6---8-----8---6---5h6v|
|-5-5-5-5-5-5-5-5-5-5-5-5-5-5-5-5-5-|
|-----------------------------------|X8
|-----------------------------------|
|-----------------------------------|

the overdubbed guitar plays these parts after the following lyrics.

*such a lust for life
|-------------------------|
|--------------------6-6~-|
|--------------------5-5~-|
|--------------------5-5~-|
|--------------------3-3~-|
|-------------------------|

the circus comes to town
|------------------------------|
|---------------------------6--|
|---------------------------5--|
|---------------------------5--|
|---------------------------3--|
|------------------------------|

we are the hungry ones
 on a lightnin raid
|-----------------------------------|
|-----------------------------------|
|-----------------------------------|
|--------------------x-8-x-8-x-8/10-|
|--------------------x-8-x-8-x-8/10-|
|--------------------x-6-x-6-x-6/8--|

just like a river runs
just like a fire needs flame
|-----------------------------------|
|-----------------------5h6-5h6-6/8-|
|-----------------------5~--5~--5~~-|
|-----------------------------------|
|-----------------------------------|
|-----------------------------------|

I BURN FOR YOU!

Chorus

guitar1

I got Ta Feel It In Ma Blood WaOh
I need your touch dont need.. WaOh
|------------------------------------------|
|-------------------------------------6----|
|-4~------------------6~----6~---6-----6---|
|-4~-x-4-4--4~--------6~6x6-6~-6~--6-------|X2
|-2~-x-2-2--4~-x-4-4--4~4x4-4~-4~----4-----|
|-----------2~-x-2-2-----------------------|
guitar2
i got to feel it  in ma blood         Waoh
I need Your Touch Dont need Your love WaoH
|-----------------------------------------------|
|7---7---7--7---7---7--(b9)--(b9)--(b9)--(b9)-(b9)7--7-(b9)-|
|-4-4-4-4--4-6-6-6-6-6--6-6-6-6--6--6----6------|
|-----------------------------------------------|X2
|-----------------------------------------------|
|-----------------------------------------------|

next part of Chorus
guitar1
and i want       and i need      and i love          Animal
|----------------|---------------|-----------------|---------------|
|----------------|---------------|-----------------|---------------|
|----------------|---------------|-----------4-x-4-|---------2-x-2-|
|----------4-x-4~|---------2-x-2~|-----------4-x-4-|---------2-x-2-|
|----------4-x-4~|---------2-x-2~|-----------2-x-2-|---------0-x-0-|
|----------2-x-2~|---------0-x-0~|-----------------|---------------|

guitar2
and i want       and i need      and i love          Animal
|----------(b9)--9~|---------(b9)--9~|----------(b9)---9~|--------(b9)---9~|
|-----------7-7--|----------7-7--|------------7-7--|----------7-7--|
|----------------|---------------|-----------------|---------------|
|----------------|---------------|-----------------|---------------|
|----------------|---------------|-----------------|---------------|
|----------------|---------------|-----------------|---------------|


guitar1
and i want       and i need      and i love          Animal
|----------------|---------------|-----------------|---------------|
|----------------|---------------|-----------------|---------------|
|----------------|---------------|-----------4-x-4-|----2*---------|
|----------4-x-4~|---------2-x-2~|-----------4-x-4-|----2*---------|
|----------4-x-4~|---------2-x-2~|-----------2-x-2-|----0*---------|
|----------2-x-2~|---------0-x-0~|-----------------|---------------|

guitar2
and i want       and i need      and i love          Animal
|----------(b9)--9~|---------(b9)--9~|----------(b9)---9~|----9*--------~|
|-----------7-7--|----------7-7--|------------7-7--|----7*---------|
|----------------|---------------|-----------------|---------------|
|----------------|---------------|-----------------|---------------|
|----------------|---------------|-----------------|---------------|
|----------------|---------------|-----------------|---------------|



Verse2-repeat previous
Chorus2-repeat previous.

Bridge

HUH!
       A.H.
|---------------|
|---------------|
|---------------|
|---------------|
|---------------|
|-4v-0-2----2v--|		   
AcordesyTabs.com © 2008 Acordes y Tablaturas para guitarra. Tabs and Chords for guitar. Aviso Legal - Contacto
El uso de este sitio está sujeto a la aceptación de los términos y condiciones (32 usuarios online)