tablaturas, partituras y acordes para guitarra
Busca por banda/artista:
 
y/o título de la canción:
A B C D E F G H I J K L M N O P Q R S T U V W X Y Z 0 1 2 3 4 5 6 7 8 9 / Top 100 tabs
Categorías
Usuarios
usuario:
Darse de alta
password:
Artistas más visitados
Publicidad
TOP acordes y tablaturas de Kiss
:: Beth - Kiss


Estás en: Inicio > Letra K > Acordes y tablaturas de Kiss > The king of the nighttime world
The king of the nighttime world
de Kiss
Puntúa este acorde/tab:      
(0.7/5)
Reportar este acorde/tab
  Añadir a tus favoritos
  Imprimir
4x       "It's
eb|---------------------------------------------------------------------------:
Bb|---------------------------------------------------------------------------:
Gb|--5b(7)~~~~~~~--5-5--7~-----5-5--7~-----5-5--7--7-(b9)7----12----12/7----5/7-:
Db|----------------5-5--7~-----5-5--7~-----5-5--7--7-7-7----12----12/7----5/7-:
Ab|----------------3-3--5~-----3-3--5~-------------------------10-10----------:
Eb|---------------------------------------------------------------------------:


  so sad..."                                                     repeat
eb|--------------------------------------------------------------------------:
Bb|--------------------------------------------------------5/6-6-6-5--5/6-5--:
Gb|7--(b9)(b9)(b9)7-----10/12-12--14-14-14-12----3/5-5--7-7-7-5--5/5-5-5-5--5/5-5--:
Db|7--7-7-7-7-----10/12-12--12-12-12-12----3/5-5--5-5-5-5--5/7-7-7-5--5/7-5--:
Ab|--------------------------------------------------------------------------:
Eb|--------------------------------------------------------------------------:
                                                              
 chorus

  "I'm the king.."
ebZ------------------------------------------------------------:
Bb|---------------8-------------6--------------8------------6--:
Gb|--5-5--7-------7-------------5----5-5--7----7------------5--:
Db|--5-5--7-------5----7-6-5----3----5-5--7----5----7-6-5---3--:
Ab|--3-3--5------------5-4-3---------3-3--5---------5-4-3------:
Eb|------------------------------------------------------------:


     solo
eb|---------------------------------------------------------------------------:
Bb|--15-15-15---12/14----12----10~---------15-15-15------------------------15-:
Gb|--14-14-14---12/14----12----10~---------14-14-14-----14---14--16---16---14-:
Db|--------------------12----12-----14-12------------12-12-x-12--12-x-12------:
Ab|---------------------------------------------------------------------------:
Eb|---------------------------------------------------------------------------:


eb|--------------------------------------10-----------------------------------:
Bb|15-15--12/14----12----10------------10-------------------12-10-------------:
Gb|14-14--12/14----12----10---------12b-----12b/12-10/12/10-12-10---12b-10/12/:
Db|--------------12----12----14-12--------------------------------------------:
Ab|---------------------------------------------------------------------------:
Eb|---------------------------------------------------------------------------:


eb|-----------15-15/14----------------------------15b/15-13~---15-15-15-15/14-:
Bb|-------------------15---------------15b/15-13~----------------------------1:
Gb|10-------------------14--14b/14-12~----------------------------------------:
Db|---12-14-------------------------------------------------------------------:
Ab|---------------------------------------------------------------------------:
Eb|---------------------------------------------------------------------------:
                                                          

eb|---------------------------15b/15-13~--15b/15-13--20-20b~~:
Bb|5---------------15b/15-13~--------------------------------:
Gb|-14--14b/14-12~-------------------------------------------:
Db|----------------------------------------------------------:
Ab|----------------------------------------------------------:
Eb|----------------------------------------------------------:		   
AcordesyTabs.com © 2008 Acordes y Tablaturas para guitarra. Tabs and Chords for guitar. Aviso Legal - Contacto
El uso de este sitio está sujeto a la aceptación de los términos y condiciones (15 usuarios online)