tablaturas, partituras y acordes para guitarra
Busca por banda/artista:
 
y/o título de la canción:
A B C D E F G H I J K L M N O P Q R S T U V W X Y Z 0 1 2 3 4 5 6 7 8 9 / Top 100 tabs
Categorías
Usuarios
usuario:
Darse de alta
password:
Artistas más visitados
Publicidad
TOP acordes y tablaturas de Kiss
:: Beth - Kiss


Estás en: Inicio > Letra K > Acordes y tablaturas de Kiss > Let me go rock 'n roll
Let me go rock 'n roll
de Kiss
Puntúa este acorde/tab:      
(0.9/5)
Reportar este acorde/tab
  Añadir a tus favoritos
  Imprimir
Intro

Eb|----------------------------------------------------|
Bb|----------------------------------------------------|
Gb|--2-2------2------2------7~-------------------------|
Db|--2-2------2------2---------------------------------|
Ab|--0-0--3-4---0-3--0---------------------------------|
Eb|----------------------------------------------------|
     


Rhythm Fig. 1

Eb|----------------------------------------------------|
Bb|----------------------------------------------------|
Gb|--2-2------2----------------------------------------|
Db|--2-2------2----------------------------------------|
Ab|--0-0--3-4---0-3------------------------------------|
Eb|----------------------------------------------------|


Rhythm Fig. 2

Eb|----------------------------------------------------|
Bb|-------------------------8-----8--------------------|
Gb|--2-2------2------2------7--7--7--7--2-2------2-----|
Db|--2-2------2------2------5--7--5--7--2-2------2-----|
Ab|--0-0--3-4---0-3--0---------5-----5--0-0--3-4---0-3-|
Eb|----------------------------------------------------|
     


Rhythm Fig. 3

Eb|----------------------------------------------------|
Bb|--8-----6--8----------------------------------------|
Gb|--7--7--5--7----2-2---2---2-2-2---7-----------------|
Db|--5--7--3--5----2-2---2---2-2-2---7-----------------|
Ab|-----5----------0-0---0---0-0-0---5-----------------|
Eb|----------------------------------------------------|
                         

Rhythm Fig. 3a

Eb|----------------------------------------------------|
Bb|--8-----6--8----------------------------------------|
Gb|--7--7--5--7----2-----------------------------------|
Db|--5--7--3--5----2-----------------------------------|
Ab|-----5----------0-----------------------------------|
Eb|----------------------------------------------------|

Rhythm Fig. 3b

Eb|----------------------------------------------------|
Bb|--8-----6--8----------------------------------------|
Gb|--7--7--5--7--2-2-----2---------2-------------------|
Db|--5--7--3--5--2-2-----2---------2-------------------|
Ab|-----5--------0-0-3-4---0-3-0---0-------------------|
Eb|----------------------------------------------------|
                 

Rhythm Fig. 3c

Eb|----------------------------------------------------|
Bb|----------------------------------------------------|
Gb|--------------2-----------------2-------------------|
Db|--------------2-----------------2-------------------|
Ab|--------------0-----------------0-------------------|
Eb|----------------------------------------------------|
                 

Rhythm Fig. 4

Eb|----------------------------------------------------|
Bb|----------------------------------------------------|
Gb|--2-2------2----------7--7----2-2------2------------|
Db|--2-2------2----------7--7----2-2------2------------|
Ab|--0-0--3-4---0-3------5--5----0-0--3-4----0-3-------|
Eb|----------------------------------------------------|
             


Eb|----------------------------------------------------|
Bb|--8-----6--8----------------------------------------|
Gb|--7--7--5--7----------------------------------------|
Db|--5--7--3--5----------------------------------------|
Ab|-----5----------------------------------------------|
Eb|----------------------------------------------------|


Eb|----------------------------------------------------|
Bb|---------------------------8---8---7~---------------|
Gb|--7-7--7---7--7--7--7(b9)(b9)-7---7---7~---------------|
Db|--5-5--5---5--5--5--5/7-7--5------------------------|
Ab|----------------------------------------------------|
Eb|----------------------------------------------------|



Riff. 1

Eb|----------5-----------------------------------------|
Bb|--------5-------------------------------------------|
Gb|----7b----------5(7)--------------------------------|
Db|----------------------------------------------------|
Ab|----------------------------------------------------|
Eb|----------------------------------------------------|
       


Riff. 2

Eb|----------------------------------------------------|
Bb|---20p^1(b9)---20--1(b9)---1(b9)--------------------------|
Gb|----------1(b9)-------1(b9)---1(b9)-------2~-----2--------|
Db|--------------------------------/4------/4----------|
Ab|----------------------------------------------------|
Eb|----------------------------------------------------|
     


Eb|----------------------------------------------------|
Bb|----------------------------------------------------|
Gb|---4b-4b-4b-r4p^2-----2~----------------------------|
Db|-------------------4--------------------------------|
Ab|----------------------------------------------------|
Eb|----------------------------------------------------|


Riff. 3

Eb|----------------------------------------------------|
Bb|----20b--20b-20b--20b~------------------------------|
Gb|----------------------------------------------------|
Db|----------------------------------------------------|
Ab|----------------------------------------------------|
Eb|----------------------------------------------------|


Riff. 4

Eb|---------17--------------17----17h^20--17h^20p^17---|
Bb|----17-------20p^17--17-----17--------------------20|
Gb|----19b--------------19b----------------------------|
Db|----------------------------------------------------|
Ab|----------------------------------------------------|
Eb|----------------------------------------------------|
       

Eb|----------------------------------------------------|
Bb|-17h^20p^17-----------------------------------------|
Gb|------------1(b9)-17h^19p^17----------17--------------|
Db|----------------------------19~--17----17--1(b9)------|
Ab|----------------------------------------------------|
Eb|----------------------------------------------------|


Eb|----------------------------------------------------|
Bb|----------------------------------------------------|
Gb|-----17---------------------------------------------|
Db|--17-----17--1(b9)1(b9)---------------------------------|
Ab|----------------------------------------------------|
Eb|----------------------------------------------------|


Solo. 

Eb|------5---------------------------------------------|
Bb|---5--5---------------------5~-/--------------------|
Gb|---7b-----7b-r7p^5h^7p^5----5~-/--------------------|
Db|-------------------------7------7~--5---------------|
Ab|--------------------------------------7-6-5--3~-----|
Eb|----------------------------------------------------|
      


Eb|------5---------------------------------------------|
Bb|---5--5---------------------5~-/--------------------|
Gb|---7b-----7b-r7p^5h^7p^5----5~-/--------------------|
Db|-------------------------7------7~--5---------------|
Ab|--------------------------------------7-6-5--3~-----|
Eb|----------------------------------------------------|
      


Eb|----------------------------------------------------|
Bb|-------10-10-----10--12-12b-12b-r12p^10----10-------|
Gb|---/11--------11------------------------11----------|
Db|----------------------------------------------------|
Ab|----------------------------------------------------|
Eb|----------------------------------------------------|


Eb|-12b-12-11-10-8--10p^9p^8-----10b-10b-8h^10p^10-----|
Bb|----------------------------------------------------|
Gb|----------------------------------------------------|
Db|----------------------------------------------------|
Ab|----------------------------------------------------|
Eb|----------------------------------------------------|
                    


Eb|----------------------------------------------------|
Bb|--10-10b--10p^8---8-10---10-8-----12b^--12b^~-------|
Gb|----------------(b9)-------------(b9)-------------------|
Db|----------------------------------------------------|
Ab|----------------------------------------------------|
Eb|----------------------------------------------------|		   
AcordesyTabs.com © 2008 Acordes y Tablaturas para guitarra. Tabs and Chords for guitar. Aviso Legal - Contacto
El uso de este sitio está sujeto a la aceptación de los términos y condiciones (18 usuarios online)