tablaturas, partituras y acordes para guitarra
Busca por banda/artista:
 
y/o título de la canción:
A B C D E F G H I J K L M N O P Q R S T U V W X Y Z 0 1 2 3 4 5 6 7 8 9 / Top 100 tabs
Categorías
Usuarios
usuario:
Darse de alta
password:
Artistas más visitados
Publicidad
TOP acordes y tablaturas de Sum 41


Noots
de Sum 41
Puntúa este acorde/tab:      
(0.4/5)
Reportar este acorde/tab
  Añadir a tus favoritos
  Imprimir
Intro  
Guitar1 
----9?-(b9)-(b9)-(b9)(b9)--10-10-10-1010-| x2 
---10-10-10-1010---10-10-10-1111-| 
---11-11-11-1010---11-11-11-1111-| 
---------------------------------| 
---------------------------------| 
---------------------------------| 
pm 
 
Riff1  
Guitar1 
----9?-(b9)-(b9)-(b9)(b9)--10-10-10-1010---7-7-7-77--7-7-77-| x2 
---10-10-10-1010---10-10-10-1111---(b9)(b9)(b9)9(b9)-(b9)(b9)9(b9)| 
---11-11-11-1010---11-11-11-1111---(b9)(b9)(b9)9(b9)-(b9)(b9)9(b9)| 
----------------------------------------------------| 
----------------------------------------------------| 
----------------------------------------------------| 
pm 
Guitar2 
----------------------------------------| x2 
----------------------------------------| 
----------------------------------------| 
---4-(x8)-7-(x8)--2-(x8)-7-(x4)-6-(x4)--| 
---4------7-------2------7------6-------| 
---2------5-------0------5------4-------| 
pm 
Guitar3 
----------------------------------------| x2 
----------------------------------------| 
------------------------1-2-4-2-1-------| 
---4-6-7-6--4-6-7-6--2?4---------2------| 
----------------------------------------| 
----------------------------------------| 
pm 
 
Verse 
Guitar1 
--------------------------------------------------------------------| 
--------------------------------------------------------------------| 
------------------(b9)-----------------------------------------7------| 
---4-(x8)-7-(x8)--(b9)(x16)-4-(x8)-7-(x8)-(b9)(x4)-7-(x4)-(b9)(x4)-7-(x4)-| 
---4------7-------7-------4------7------(b9)-----7------(b9)-----5------| 
---2------5---------------2------5------7------5------7-------------| 
pm ,,,,,,,,,,,,,,,,,,,,,,,,,,,,,,,,,,,,,,,,,,,,,,,,,,,,,,,,,,,,,,,,, 
 
--------------------------------------------------------------------| 
--------------------------------------------------------------------| 
-----------------(b9)-------------------------------------------------| 
---4-(x8)-7-(x8)-(b9)(x16)-4-(x8)-7-(x8)-(b9)(x4)-7-(x4)-(b9)(x4)-11-(x4)-| 
---4------7------7-------4------7------(b9)-----7------(b9)-----11------| 
---2------5--------------2------5------7------5------7------(b9)------| 
pm ,,,,,,,,,,,,,,,,,,,,,,,,,,,,,, 
 
Guitar2  
---10------10------12-------| 
---11-(x2)-11-(x2)-12-(x8)--| 
---12------12------12-------| 
----------------------------| 
----------------------------| 
----------------------------| 
pm 
 
Riff2  
Guitar1 
---------------------------------| 
---------------------------------| 
---------------------------------| 
-------------------------------6-| 
---7-7-5/7-7-5/7(b9)7/5--7-7-5/7--| 
---------------------------------| 
pm 
 
Chorus 
Guitar1 
----------------------------------------| x2 
----------------------------------------| 
----------7-----------------------------| 
---4-(x8)-7-(x8)--7-(x8)-2-(x8)---------| 
---4------5-------7------2--------------| 
---2--------------5------0--------------| 
 
----------------------------------------| x2 
----------------------------------------| 
---7------------------------------------| 
---7-(x8)-4-(x8)--7-(x8)-2-(x8)---------| 
---5------4-------7------2--------------| 
----------2-------5------0--------------| 
 
Riff1 x1 
Verse  
Riff2  
Chorus  
 
 
Guitar1 
--------------------------------------------------------------| 
--------------------------------------------------------------| 
-11------7-------------(b9)-----11------7-----------------------| 
-11-(x8)-7-(x8)-7-(x8)-(b9)(x8)-11-(x8)-7-(x8)-7-(x8)-7-(x8)--4-| 
--(b9)-----5------7------7-------(b9)-----5------7------7-------4-| 
----------------5----------------------------5------4-------2-| 
 
 
Guitar1 (ska rhythm) 
--(b9)------7------5------4------|x2 
-10-(x11)-7-(x5)-6-(x3)-5-(x3)-| 
-11-------7------6------6------| 
-------------------------------| 
-------------------------------| 
-------------------------------| 
 
 
-5------4--5------4--(b9)-----7------| x4 
-6-(x5)-6--6-(x5)-6--(b9)(x8)-(b9)(x8)-| 
-6------6--6------6--(b9)-----(b9)-----| 
-----------------------------------| 
-----------------------------------| 
-----------------------------------| 
 
Chorus  
 
Riff3  
 
Guitar1 
------------------------|x3-------| 
------------------------|---------| 
----------7-------------|---------| 
---4-(x8)-7-(x4)--2-(x4)|-2-(x16)-| 
---4------5-------2-----|-2-------| 
---2--------------0-----|-0-------| 
pm 
 
Guitar2 
---------------------------------------------------------------------| 
---------------------------------------------------------------------| 
-----------------------------3-1-0-----------------------0-3-1-0-2-2-| 
---4-6-7-6--4-6-7-6--4-6-7-4------2--4-6-7-6--4-6-7-4?2-4-2----------| 
---------------------------------------------------------------------| 
---------------------------------------------------------------------|		   
AcordesyTabs.com © 2008 Acordes y Tablaturas para guitarra. Tabs and Chords for guitar. Aviso Legal - Contacto
El uso de este sitio está sujeto a la aceptación de los términos y condiciones (68 usuarios online)