tablaturas, partituras y acordes para guitarra
Busca por banda/artista:
 
y/o título de la canción:
A B C D E F G H I J K L M N O P Q R S T U V W X Y Z 0 1 2 3 4 5 6 7 8 9 / Top 100 tabs
Categorías
Usuarios
usuario:
Darse de alta
password:
Artistas más visitados
Publicidad
TOP acordes y tablaturas de System of a down


Attack
de System of a down
Puntúa este acorde/tab:      
(0.4/5)
Reportar este acorde/tab
  Añadir a tus favoritos
  Imprimir
Legendas
 
  (x) Abafar 

              AFINAÇÃO
                d#|
                A#|
                F#|
                C#|
                G#|
                C#|

d#|------------------------------------
A#|------------------------------------
F#|------------------------------------
C#|------------------------------------ 12x
G#|-----5-6-5-6-5-6-5-6-5-x-x-x-x-x-x--
C#|-----------------------x-x-x-x-x-x--

	(1ªPARTE)

    Breathing each other's  lives Holding this in mind  
d#|----------------------------------------------------
A#|-13--11----11---13-------10----13-11---15---13-10---
F#|-12--10----10---12-------(b9)----12-10---14---12-(b9)---
C#|----------------------------------------------------
G#|----------------------------------------------------
C#|----------------------------------------------------
 
   That if we fall, we all fall We fall aloneeeeeeeeeeeeeeeeeee
d#|-------------------------------------------------------------
A#|-----10-11-13----15-16--11---13-14---10-10-10-10-10-10-10-10-
F#|-----(b9)-10-12----14-15--10---12-13---(b9)-(b9)-(b9)-(b9)-(b9)-(b9)-(b9)-(b9)-
C#|-------------------------------------------------------------
G#|-------------------------------------------------------------
C#|-------------------------------------------------------------

 (ABAFANDO AS CORDAS)
   The cold insincerity of steel   machines
d#|--------------------------------------------------------------
A#|--------------------------------------------------------------
F#|--------------------------------------------------------------
C#|--------------------------------------------------------------
G#|----5-7-6-5---6-8-7-6---8-10-(b9)8---10-12-11-10----------------
C#|----5-7-6-5---6-8-7-6---8-10-(b9)8---10-12-11-10----------------

  (SEM ABAFAR)
    Have      consumed our            euphoria
d#|------------------------------------------------------------------
A#|------------------------------------------------------------------
F#|------------------------------------------------------------------
C#|------------------------------------------------------------------
G#|------------------------------------------------------------------
C#|-12-12-12--10-10-10--(b9)(b9)(b9)-7-7-7--10-10-10--8-8-8--7-7-7--5-5-5--

  (ABAFANDO AS CORDAS)
    Transforming us into   muted      dreams
d#|------------------------------------------------------------
A#|------------------------------------------------------------
F#|------------------------------------------------------------
C#|------------------------------------------------------------
G#|--5-7-6-5-----6-8-7-6---8-10-(b9)8---10-12-11-10--------------
C#|--5-7-6-5-----6-8-7-6---8-10-(b9)8---10-12-11-10--------------

 (SEM ABAFAR)
    Dreaming            of     the    day       that
d#|------------------------------------------------------------------
A#|------------------------------------------------------------------
F#|------------------------------------------------------------------
C#|------------------------------------------------------------------
G#|------------------------------------------------------------------
C#|-12-12-12--10-10-10--(b9)(b9)(b9)-7-7-7--10-10-10--8-8-8----------------
 
                ( REFRÃO )

     We attack, Attack, attack your fetal servitude    
d#|-------------------------------------------------
A#|-------------------------------------------------
F#|-------------------------------------------------
C#|--5--8-7-x-x-x-x-x-x-x-x-x-x---------------------
G#|--3--6-5-x-x-x-x-x-x-x-x-x-x---------------------
C#|---------x-x-x-x-x-x-x-x-x-x---------------------

    We   attack, Attack, attack, attack with pesticide
d#|-----------------------------------------------------
A#|-----------------------------------------------------
F#|-----------------------------------------------------
C#|-5-5--8-7--x-x-x-x-x-x-x-x-x-x-----------------------
G#|-3-3--6-5--x-x-x-x-x-x-x-x-x-x-----------------------
C#|-----------x-x-x-x-x-x-x-x-x-x-----------------------


    We   attack, All the years of propaganda
d#|-----------------------------------------------------
A#|-----------------------------------------------------
F#|-----------------------------------------------------
C#|-5-5--8-7--x-x-x-x-x-x-x-x-x-x-----------------------
G#|-3-3--6-5--x-x-x-x-x-x-x-x-x-x-----------------------
C#|-----------x-x-x-x-x-x-x-x-x-x-----------------------
   We shall attack
d#|-----------------------------------------------------
A#|-----------------------------------------------------
F#|-----------------------------------------------------
C#|-5-5-----8-7--8-11-12-11-(b9)--------------------------
G#|-3-3-----6-5--6-(b9)-10-(b9)-7---------------------------
C#|-----------------------------------------------------

   (ABAFANDO AS CORDAS)
      Books illustrate what we already know
d#|--------------------------------------------------------------
A#|--------------------------------------------------------------
F#|--------------------------------------------------------------
C#|--------------------------------------------------------------
G#|----5-7-6-5---6-8-7-6----8-10-(b9)8---10-12-11-10---------------
C#|----5-7-6-5---6-8-7-6----8-10-(b9)8---10-12-11-10---------------

  (SEM ABAFAR)
    Candles             cry    towards         the     sky
d#|------------------------------------------------------------------
A#|------------------------------------------------------------------
F#|------------------------------------------------------------------
C#|------------------------------------------------------------------
G#|------------------------------------------------------------------
C#|-12-12-12--10-10-10--(b9)(b9)(b9)-7-7-7--10-10-10--8-8-8--7-7-7--5-5-5--

   (ABAFANDO AS CORDAS)
       Racing your flags along polluted   coasts
d#|--------------------------------------------------------------
A#|--------------------------------------------------------------
F#|--------------------------------------------------------------
C#|--------------------------------------------------------------
G#|----5-7-6-5-----6-8-7-6-----8-10-(b9)8---10-12-11-10------------
C#|----5-7-6-5-----6-8-7-6-----8-10-(b9)8---10-12-11-10------------

 (SEM ABAFAR)
    Dreaming            of     the    day       that
d#|------------------------------------------------------------------
A#|------------------------------------------------------------------
F#|------------------------------------------------------------------
C#|------------------------------------------------------------------
G#|------------------------------------------------------------------
C#|-12-12-12--10-10-10--(b9)(b9)(b9)-7-7-7--10-10-10--8-8-8----------------

	( REPETE REFRÃO )

      Attaaaaaaaaaaaaaaaaaaaaaaaack } 2x
d#|----------------------------------
A#|----------------------------------
F#|----------------------------------
C#|---------------------------------- 8x
G#|---5-6-5-6-5-6-5-6-5-x-x-x-x-x-x--
C#|---------------------x-x-x-x-x-x--
	
	(REPETE 1ª PARTE)

   (ABAFANDO AS CORDAS)
     What's the philosophy of displaced mines
d#|------------------------------------------------------------
A#|------------------------------------------------------------
F#|------------------------------------------------------------
C#|------------------------------------------------------------
G#|--5-7-6-5-------6-8-7-6----8-10-(b9)8--10-12-11-10------------
C#|--5-7-6-5-------6-8-7-6----8-10-(b9)8--10-12-11-10------------
 (SEM ABAFAR)
   The bombing             of     all    homes    and     villages 
d#|--------------------------------------------------------------------
A#|--------------------------------------------------------------------
F#|--------------------------------------------------------------------
C#|--------------------------------------------------------------------
G#|--------------------------------------------------------------------
C#|----12-12-12--10-10-10--(b9)(b9)(b9)-7-7-7--10-10-10--8-8-8--7-7-7--5-5-5-
    (ABAFANDO AS CORDAS)
       Truth is the only sword bleeding  minds 
d#|--------------------------------------------------------------
A#|--------------------------------------------------------------
F#|--------------------------------------------------------------
C#|--------------------------------------------------------------
G#|----5-7-6-5------6-8-7-6----8-10-(b9)8--10-12-11-10-------------
C#|----5-7-6-5------6-8-7-6----8-10-(b9)8--10-12-11-10-------------
 (SEM ABAFAR)
    Bleeding            till   the    day       that
d#|------------------------------------------------------------------
A#|------------------------------------------------------------------
F#|------------------------------------------------------------------
C#|------------------------------------------------------------------
G#|------------------------------------------------------------------
C#|-12-12-12--10-10-10--(b9)(b9)(b9)-7-7-7--10-10-10--8-8-8----------------

	( REPETE REFRÃO )

   Attack all the homes and villages
d#|----------------------------------------------------------
A#|----------------------------------------------------------
F#|----------------------------------------------------------
C#|--7----x---x----7----x-x-7-x-x----5-5-8-7-7-7-------------
G#|--5----x---x----5----x-x-5-x-x----3-3-6-5-5-5-------------
C#|----------------------------------------------------------

   Attack all the schools and hospitals You attack 
d#|----------------------------------------------------------
A#|----------------------------------------------------------
F#|----------------------------------------------------------
C#|--7----x---x----7------x-x-7-x-x-----5-5-8-7-7-7----------
G#|--5----x---x----5------x-x-5-x-x-----3-3-6-5-5-5----------
C#|----------------------------------------------------------

    all the rapes and pillages  We shall attack
d#|-------------------------------------------------------------------------
A#|-------------------------------------------------------------------------
F#|-------------------------------------------------------------------------
C#|-x---x---7-----x-x-7-x-x-----5---5----8-7-7-7--11---11-11-11-11--12-11-(b9)
G#|-x---x---5-----x-x-5-x-x-----3---3----6-5-5-5--(b9)---(b9)-(b9)-(b9)-(b9)--10-(b9)-7-
C#|-------------------------------------------------------------------------
                                            We shall attack
d#|-------------------------------------------------------------------------|
A#|-------------------------------------------------------------------------|
F#|-------------------------------------------------------------------------|
C#|-------------------------------------------------------------------------|
G#|--4-4-4--x--2-4--x--5-4--x--2-4--x--5-4--x--x-----x-2-xxx----------------|
C#|--4-4-4--x--2-4--x--5-4--x--2-4--x--5-4--x--x-----x-2-xxx----------------|		   
AcordesyTabs.com © 2008 Acordes y Tablaturas para guitarra. Tabs and Chords for guitar. Aviso Legal - Contacto
El uso de este sitio está sujeto a la aceptación de los términos y condiciones (29 usuarios online)