tablaturas, partituras y acordes para guitarra
Busca por banda/artista:
 
y/o título de la canción:
A B C D E F G H I J K L M N O P Q R S T U V W X Y Z 0 1 2 3 4 5 6 7 8 9 / Top 100 tabs
Categorías
Usuarios
usuario:
Darse de alta
password:
Artistas más visitados
Publicidad
TOP acordes y tablaturas de Six feet under


Suffering in
de Six feet under
Puntúa este acorde/tab:      
(0.2/5)
Reportar este acorde/tab
  Añadir a tus favoritos
  Imprimir
- palm mute           /  - slide up to

  - slide down to       ~  - vibrato

h  - hammer on           b  - Bend

p  - pull off            Suffixes for bend

t  - tap                 f  - full bend    h - half bend

ph - pinched harmonic    q  - quarter bend t - tap bend

*  - see comment         ^  - Hold bend    r release bend

x  - Rest                ~  - vibrato bend

,  - slight palm mute    () - ghost note, sustained note

"  - tremolo note         - Trill



Tuning: "D"G"C"F"A"D"





Riff 1

|---------------------------------------------------------|

|---------------------------------------------------------|

|---------------------------------------------------------|

|---------------------------------------------------------|

|--2-------------2-------------2-------------2---------3--|

|--0-0-0-0-0-0-0-0-0-0-0-0-0-0-0-0-0-0-0-0-0-0-0-0-0-0-1--|

     , , , , , ,   , , , , , ,   , , , , , ,   , , , ,



Fill 1

|---------------------------------------------------------|

|---------------------------------------------------------|

|---------------------------------------------------------|

|------------------------------2--------------------------|

|--2-------------2-------------2--------------------------|

|--0-0-0-0-0-0-0-0-0-0-0-0-0-0-0--------------------------|

     , , , , , ,   , , , , , ,



Riff 2                                        x2

|-----------------------------------------------|

|-----------------------------------------------|

|-----------------------------------------------|

|-------------6----------5-----------3----------|

|--5----------4----------3-----------1----------|

|--3----------4----------3-----------1----------|





Riff 3                                        x2

|-----------------------------------------------|

|-----------------------------------------------|

|-----------------------------------------------|

|-------------8----------7-----------5----------|

|--7----------6----------5-----------3----------|

|--5----------6----------5-----------3----------|





Riff 4 (Solo Riff)                            x2

|-----------------------------------------------|

|-----------------------------------------------|

|-----------------------------------------------|

|------------10----------(b9)----------7----------|

|--(b9)---------8----------7-----------5----------|

|--7----------8----------7-----------5----------|		   
AcordesyTabs.com © 2008 Acordes y Tablaturas para guitarra. Tabs and Chords for guitar. Aviso Legal - Contacto
El uso de este sitio está sujeto a la aceptación de los términos y condiciones (28 usuarios online)