tablaturas, partituras y acordes para guitarra
Busca por banda/artista:
 
y/o título de la canción:
A B C D E F G H I J K L M N O P Q R S T U V W X Y Z 0 1 2 3 4 5 6 7 8 9 / Top 100 tabs
Categorías
Usuarios
usuario:
Darse de alta
password:
Artistas más visitados
Publicidad
TOP acordes y tablaturas de Six feet under


Lycanthropy
de Six feet under
Puntúa este acorde/tab:      
(0.6/5)
Reportar este acorde/tab
  Añadir a tus favoritos
  Imprimir
Gtr I (D G C F A D) - 'Allen West'

Gtr II (D G C F A D) - 'Allen West'



   Intro

    Q=118

    $$

   4/4

    Gtr I

    PM------------------------------------------------------|

    S S S S E S S S S E S S S S   S S S S E S S S S E S S S S

||------------------------------|-------------------------------|

||o-----------------------------|-------------------------------|

||------------------------------|-------------------------------|

||------------------------------|-------------------------------|

||o-----------------------------|-------------------------------|

||--0-0-0-0---0-0-0-0---0-0-0-0-|-0-0-0-0---0-0-0-0---0-0-0-0---|





  PM------------------------------------------------------|

  S S S S E S S S S E S S S S   S S S S E S S S S E S S S S

|-----------------------------|-------------------------------||

|-----------------------------|------------------------------o||

|-----------------------------|-------------------------------||

|-----------------------------|-------------------------------||

|-----------------------------|------------------------------o||

|-1-1-1-1---1-1-1-1---1-1-1-1-|-4-4-4-4---4-4-4-4---4-4-4-4---||





    Gtrs I, II

    PM------------------------------------------------------|

    S S S S E S S S S E S S S S   S S S S E S S S S E S S S S

||------------------------------|-------------------------------|

||o-----------------------------|-------------------------------|

||------------------------------|-------------------------------|

||------------------------------|-------------------------------|

||o-----------------------------|-------------------------------|

||--0-0-0-0---0-0-0-0---0-0-0-0-|-0-0-0-0---0-0-0-0---0-0-0-0---|





  PM------------------------------------------------------|

  S S S S E S S S S E S S S S   S S S S E S S S S E S S S S

|-----------------------------|-------------------------------||

|-----------------------------|------------------------------o||

|-----------------------------|-------------------------------||

|-----------------------------|-------------------------------||

|-----------------------------|------------------------------o||

|-1-1-1-1---1-1-1-1---1-1-1-1-|-4-4-4-4---4-4-4-4---4-4-4-4---||





   Verse

    $

     E5                          E5

     Gtrs I, II

     E  E  E  S E  S S S E  E    E  E  E  S E  S S S E  E

||-----------------------------|-----------------------------|

||o----------------------------|-----------------------------|

||-----------------------------|-----------------------------|

||---2--2--2--2-2--2-2-2-2--2--|-2--2--2--2-2--2-2-2-2--2----|

||o--2--2--2--2-2--2-2-2-2--2--|-2--2--2--2-2--2-2-2-2--2----|

||---0--0--0--0-0--0-0-0-0--0--|-0--0--0--0-0--0-0-0-0--0----|





  F5                                G#5

  Gtr I

  E   E   E   S E   S S S E   E     E   E   E   S E   S S S E   E      4x

|---------------------------------|------------------------------------||

|---------------------------------|-----------------------------------o||

|---------------------------------|------------------------------------||

|-3---3---3---3-3---3-3-3-3---3---|-6---6---6---6-6---6-6-6-6---6------||

|-3---3---3---3-3---3-3-3-3---3---|-6---6---6---6-6---6-6-6-6---6-----o||

|-1---1---1---1-1---1-1-1-1---1---|-4---4---4---4-4---4-4-4-4---4------||

|

| Gtr II

| S S S S S S S S S S S S S S S S   S S S S S S S S S S S S S S S S    4x

|---------------------------------|------------------------------------||

|---------------------------------|-----------------------------------o||

|---------------------------------|------------------------------------||

|---------------------------------|------------------------------------||

|---------------------------------|-----------------------------------o||

|-1-1-1-1-1-1-1-1-1-1-1-1-1-1-1-1-|-4-4-4-4-4-4-4-4-4-4-4-4-4-4-4-4----||





   Chorus

                 1.,2.,3.                   4.

To Coda

     G#5  G5                     F5                         F5

     Gtrs I, II

                                    PM|

     H    H      S S S S S S S S Q  E E  4x S S S S S S S S H

||-------------|-------------------------||---------------------|

||o------------|------------------------o||---------------------|

||-------------|-------------------------||---------------------|

||---6----5----|-----------------3-------||-----------------3---|

||o--6----5----|-----------------3------o||-----------------3---|

||---4----3----|-0-0-0-0-0-0-0-0-1--0-0--||-0-0-0-0-0-0-0-0-1---|





  Gtr I

  PM------------------------------------------------------|

  S S S S E S S S S E S S S S   S S S S E S S S S E S S S S

|-----------------------------|------------------------------|

|-----------------------------|------------------------------|

|-----------------------------|------------------------------|

|-----------------------------|------------------------------|

|-----------------------------|------------------------------|

|-0-0-0-0---0-0-0-0---0-0-0-0-|-0-0-0-0---0-0-0-0---0-0-0-0--|





  PM------------------------------------------------------|

  S S S S E S S S S E S S S S   S S S S E S S S S E S S S S

|-----------------------------|------------------------------|

|-----------------------------|------------------------------|

|-----------------------------|------------------------------|

|-----------------------------|------------------------------|

|-----------------------------|------------------------------|

|-1-1-1-1---1-1-1-1---1-1-1-1-|-4-4-4-4---4-4-4-4---4-4-4-4--|





  Gtrs I, II

  PM------------------------------------------------------|

  S S S S E S S S S E S S S S   S S S S E S S S S E S S S S

|-----------------------------|------------------------------|

|-----------------------------|------------------------------|

|-----------------------------|------------------------------|

|-----------------------------|------------------------------|

|-----------------------------|------------------------------|

|-0-0-0-0---0-0-0-0---0-0-0-0-|-0-0-0-0---0-0-0-0---0-0-0-0--|





  PM------------------------------------------------------|

  S S S S E S S S S E S S S S   S S S S E S S S S E S S S S

|-----------------------------|------------------------------|

|-----------------------------|------------------------------|

|-----------------------------|------------------------------|

|-----------------------------|------------------------------|

|-----------------------------|------------------------------|

|-1-1-1-1---1-1-1-1---1-1-1-1-|-4-4-4-4---4-4-4-4---4-4-4-4--|





   Chorus

D.S. al Coda

    &

     G#5  G5                     F5

                                    PM|

     H    H      S S S S S S S S Q  E E

||-------------|------------------------|

||o------------|------------------------|

||-------------|------------------------|

||---6----5----|-----------------3------|

||o--6----5----|-----------------3------|

||---4----3----|-0-0-0-0-0-0-0-0-1--0-0-|





  G#5  G5                     F5

                                 PM|

  H    H      S S S S S S S S Q  E E

|-----------|---------------------------||

|-----------|--------------------------o||

|-----------|---------------------------||

|-6----5----|-----------------3---------||

|-6----5----|-----------------3--------o||

|-4----3----|-0-0-0-0-0-0-0-0-1--0-0----||





    C5/G               Bb5/F    C#5/Ab             Bb5/F

               PM----|    PM|              PM----|    PM|

    W          E E E E Q  E E   W          E E E E Q  E E

||-----------|----------------|----------|--------------------||

||o----------|----------------|----------|-------------------o||

||-----------|----------------|----------|--------------------||

||--5--------|---------3------|-6--------|---------3----------||

||o-3--------|---------1------|-4--------|---------1---------o||

||--3--------|-0-0-0-0-1--0-0-|-4--------|-0-0-0-0-1--0-0-----||





    G#5  G5                     F5

                                   PM|

    H    H      S S S S S S S S Q  E E

||------------|------------------------|

||o-----------|------------------------|

||------------|------------------------|

||--6----5----|-----------------3------|

||o-6----5----|-----------------3------|

||--4----3----|-0-0-0-0-0-0-0-0-1--0-0-|





  G#5  G5                     F5

                                 PM|

  H    H      S S S S S S S S Q  E E

|-----------|----------------------------||

|-----------|---------------------------o||

|-----------|----------------------------||

|-6----5----|-----------------3----------||

|-6----5----|-----------------3---------o||

|-4----3----|-0-0-0-0-0-0-0-0-1--0-0-----||





  C5/G               Bb5/F    C#5/Ab             Bb5/F

             PM----|    PM|              PM----|    PM|

  W          E E E E Q  E E   W          E E E E Q  E E

|----------|----------------|----------|------------------|

|----------|----------------|----------|------------------|

|----------|----------------|----------|------------------|

|-5--------|---------3------|-6--------|---------3--------|

|-3--------|---------1------|-4--------|---------1--------|

|-3--------|-0-0-0-0-1--0-0-|-4--------|-0-0-0-0-1--0-0---|





  C5/G               Bb5/F    C#5/Ab             Bb5/F

             PM----|    PM|              PM----|

  W          E E E E Q  E E   W          E E E E H

|----------|----------------|----------|--------------|

|----------|----------------|----------|--------------|

|----------|----------------|----------|--------------|

|-5--------|---------3------|-6--------|---------3----|

|-3--------|---------1------|-4--------|---------1----|

|-3--------|-0-0-0-0-1--0-0-|-4--------|-0-0-0-0-1----|





   Verse  Outro

D.S.S. al Dbl. Coda

    &&

     E5                          E5

     Gtrs I, II

     E  E  E  S E  S S S E  E    E  E  E  S E  S S S E  E

||-----------------------------|-----------------------------|

||o----------------------------|-----------------------------|

||-----------------------------|-----------------------------|

||---2--2--2--2-2--2-2-2-2--2--|-2--2--2--2-2--2-2-2-2--2----|

||o--2--2--2--2-2--2-2-2-2--2--|-2--2--2--2-2--2-2-2-2--2----|

||---0--0--0--0-0--0-0-0-0--0--|-0--0--0--0-0--0-0-0-0--0----|





  F5                                G#5

  Gtr I

  E   E   E   S E   S S S E   E     E   E   E   S E   S S S E   E      7x

|---------------------------------|------------------------------------||

|---------------------------------|-----------------------------------o||

|---------------------------------|------------------------------------||

|-3---3---3---3-3---3-3-3-3---3---|-6---6---6---6-6---6-6-6-6---6------||

|-3---3---3---3-3---3-3-3-3---3---|-6---6---6---6-6---6-6-6-6---6-----o||

|-1---1---1---1-1---1-1-1-1---1---|-4---4---4---4-4---4-4-4-4---4------||

|

| Gtr II

| S S S S S S S S S S S S S S S S   S S S S S S S S S S S S S S S S    7x

|---------------------------------|------------------------------------||

|---------------------------------|-----------------------------------o||

|---------------------------------|------------------------------------||

|---------------------------------|------------------------------------||

|---------------------------------|-----------------------------------o||

|-1-1-1-1-1-1-1-1-1-1-1-1-1-1-1-1-|-4-4-4-4-4-4-4-4-4-4-4-4-4-4-4-4----||





Duration Legend

---------------

W - whole; H - half; Q - quarter; E - 8th; S - 16th; T - 32nd; X - 64th; a - acciaccatura

+ - note tied to previous; . - note dotted; .. - note double dotted

Uncapitalized letters represent notes that are staccato (1/2 duration)

Irregular groupings are notated above the duration line

Duration letters will always appear directly above the note/fret number it represents the

duration for.  Duration letters with no fret number below them represent rests.  Multi-

bar rests are notated in the form Wxn, where n is the number of bars to rest for.  Low

melody durations appear below the staff



Tablature Legend

----------------

 h   - hammer-on

 p   - pull-off

 b   - bend

 pb  - pre-bend

 r   - bend release (if no number after the r, then release immediately)

 /  - slide into or out of (from/to "nowhere")

 s   - legato slide

 S   - shift slide

  - natural harmonic

[n]  - artificial harmonic

n(n) - tapped harmonic

 ~   - vibrato

 tr  - trill

 T   - tap

 TP  - trem. picking

 PM  - palm muting


/  - tremolo bar dip; n = amount to dip

 
  - tremolo bar down

 n/  - tremolo bar up

/n  - tremolo bar inverted dip

 =   - hold bend; also acts as connecting device for hammers/pulls

 <>  - volume swell (louder/softer)

 x   - on rhythm slash represents muted slash

 o   - on rhythm slash represents single note slash



Misc Legend

-----------

 |  - bar

||  - double bar

||o - repeat start

o|| - repeat end

*|  - double bar (ending)

 :  - bar (freetime)

 $  - Segno

 &  - Coda

Tempo markers -  = BPM(8/16=s8/s16), where s8 = swing 8ths, s16 = swing 16ths		   
AcordesyTabs.com © 2008 Acordes y Tablaturas para guitarra. Tabs and Chords for guitar. Aviso Legal - Contacto
El uso de este sitio está sujeto a la aceptación de los términos y condiciones (24 usuarios online)