tablaturas, partituras y acordes para guitarra
Busca por banda/artista:
 
y/o título de la canción:
A B C D E F G H I J K L M N O P Q R S T U V W X Y Z 0 1 2 3 4 5 6 7 8 9 / Top 100 tabs
Categorías
Usuarios
usuario:
Darse de alta
password:
Artistas más visitados
Publicidad
TOP acordes y tablaturas de Zz top


Estás en: Inicio > Letra Z > Acordes y tablaturas de Zz top > Jesus just left chicago
Jesus just left chicago
de Zz top
Puntúa este acorde/tab:      
(0.4/5)
Reportar este acorde/tab
  Añadir a tus favoritos
  Imprimir
Standard Tuning

(Intro)
  G C/G   G C/G
e|-3--3--|-3--3--|
B|-0--1--|-0--1--|
G|-0--0--|-0--0--|
D|-0--2--|-0--2--|
A|-2--x--|-2--x--|
e|-3--3--|-3--3--|

(Verse 1)
  G C/G   G C/G   G C/G   G C/G 
e|-3--3--|-3--3--|-3--3--|-3--3--|
B|-0--1--|-0--1--|-0--1--|-0--1--|
G|-0--0--|-0--0--|-0--0--|-0--0--|
D|-0--2--|-0--2--|-0--2--|-0--2--|
A|-2--x--|-2--x--|-2--x--|-2--x--|
e|-3--3--|-3--3--|-3--3--|-3--3--|

  C F/C   C F/C   G C/G   G C/G
e|-x--x--|-x--x--|-3--3--|-3--3--|
B|-5--6--|-5--6--|-0--1--|-0--1--|
G|-5--5--|-5--5--|-0--0--|-0--0--|
D|-5--7--|-5--7--|-0--2--|-0--2--|
A|-x--x--|-x--x--|-2--x--|-2--x--|
e|-x--x--|-x--x--|-3--3--|-3--3--|

  G C/G
e|-3--3--|
B|-0--1--|
G|-0--0--|
D|-0--2--|
A|-2--x--|
e|-3--3--|

  A      C      G
E|-0------0------3-|
B|-2------1------3-|
G|-2------0------0-|
D|-2------2------0-|
A|-0--0-2-3--1---2-|
E|-------------3-3-|
         
      |-----figure 1----------|
E|-----|-3---3-----3-----3-----|
B|-----|-----------------------|
G|---0-|-----------------------|
D|-----|---3---3-2---2-1-------|
A|-1---|-------------------1---|
E|-----|---------------------3-|

Repeat for verse two

Guitar Solo
E|--8------8------8------8-------------|--------------------|
B|-10b1/2-10b1/2-10b1/2-10b1/2---------|--------------------|
G|-----------------------------------3-|-5b1----3-----------|
D|---------------------------------5---|-----------3--------|
A|-------------------------------------|--------------------|
E|-------------------------------------|----------------6p3-|

E|--8------8------8----------|
B|-10b1/2-10b1/2--10b1/2-----|
G|---------------------------|
D|---------------------------|
A|---------------------------|
E|---------------------------|

E|-------------------------|------3------------------------|
B|------------------6b1--6-|-6b1----6-----6b1--6p3h6p3h6p3-|
G|-5b1--5b1--3----3--------|--------5b1r3------------------|
D|--------------5----------|-------------------------------|
A|-------------------------|-------------------------------|
E|-------------------------|-------------------------------|

E|----------------------------|
B|-----------------6----------|
G|--5p3--5--3-5b1--5-3------0-|
D|-5----5--5----------------0-|
A|------------------------1---|
E|----------------------3---3-|

E|--8------8------8------------------|---------------------|
B|-10b1/2-10b1/2-10b1/2--------------|---3-6---------------|
G|-----------------------------3-5b1-|-------5b1-------5---|
D|---------------------------5-------|-------------5p3---5-|
A|-----------------------------------|---------------------|
E|-----------------------------------|---------------------|

E|----------------------------|
B|----------------------------|
G|-5b1/2p3--5--3---0----------|
D|---------------3------------|
A|----------------------------|
E|-----------------------3----|

     (turnaround)
E|----3-----3-----3-----3-|---3-----3------3-----3--|
B|------------------------|-------------------------|
G|------------------------|-------------------------|
D|------0h3---3-2---2-1---|-----0h3----3-2---2-1----|
A|------------------------|-------------------------|
E|-3----------------------|-3-----------------------|

E|----3-----3-----3-----3-|---3-----3-----3----3----|
B|------------------------|-------------------------|
G|------------------------|-------------------------|
D|------0h3---3-2---2-1---|-----0h3---3-2---2-1-----|
A|------------------------|----------------------1--|
E|-3----------------------|-3-----------------------|

Now repeat the main riff for verse three

   (Outro Guitar Solo)
E|-s8----8--------------|-------------------------------------------|
B|-s11---11-------------|----------6p3-6p3---3------------------3-6-|
G|---------------x^^^0--|-5b1--5b1---------5---3-5p3---5--3-5b1-----|
D|---------------x^^-0--|----------------------------5---5----------|
A|----------------------|-------------------------------------------|
E|----------------------|-------------------------------------------|

E|---------------------------------|
B|-6p3---3-------------------------|
G|-----5---3-5p3---5--3-5b1---3----|
D|---------------5---5-------------|
A|---------------------------------|
E|---------------------------------|

       (ph=pitch harm)
E|---------------------------------|-------------6-------|
B|-6ph--6ph--6ph--6-6-6----------6-|-8ph-8ph-8ph---8-8-8-|
G|----------------7-7-7-7-3-5b1--7-|---------------------|
D|---------------------------------|---------------------|
A|---------------------------------|---------------------|
E|---------------------------------|---------------------|
   
     (start fade)
E|------6-------------|--------------------------|
B|-8-8----8-8-8-------|--------------------------|
G|--------------7-5-3-|-3-----3------------------|
D|--------------------|---5----------3h5p3-5-3-5-|
A|--------------------|-----3---3-3--------------|
E|--------------------|--------------------------|

                                                          (fade out)
E|---------------------1--1|-----------------------|------------------|
B|---------------------3--1|--------------3--------|------------------|
G|-------------------------|-5b1--5b1p3-5---3-----0|------------------|
D3-5p3-5-3-5-3------------|-----------------------|------------------|
A|----------------5-5------|-----------------------|------------------|
E|--------------6-3-3------|-------------------6---|-3----------------|		   
AcordesyTabs.com © 2008 Acordes y Tablaturas para guitarra. Tabs and Chords for guitar. Aviso Legal - Contacto
El uso de este sitio está sujeto a la aceptación de los términos y condiciones (18 usuarios online)