tablaturas, partituras y acordes para guitarra
Busca por banda/artista:
 
y/o título de la canción:
A B C D E F G H I J K L M N O P Q R S T U V W X Y Z 0 1 2 3 4 5 6 7 8 9 / Top 100 tabs
Categorías
Usuarios
usuario:
Darse de alta
password:
Artistas más visitados
Publicidad
TOP acordes y tablaturas de Zz top


Cocaine
de Zz top
Puntúa este acorde/tab:      
(0.4/5)
Reportar este acorde/tab
  Añadir a tus favoritos
  Imprimir
EADGBe


------------------------------------|
------------------------------------|
------------7-----------------------|
---(b9)(b9)7-(b9)-7-----------------------|
---7-7-5-7--5--------------5--------|
-----------------5h7p5h7p5----------|


----------------------------|
--3s5-hold--3s5-3-----------|
--2s4-hold--2s4-2-----------|
----------------------------|
----------------------------|
----------------------------|

this is played in the background of the above riff
--------------------------|
--------------------------|
--------------------------|
------0-------------------|
--0h2---0h2-0-------------|
--------------4p0---------|


then this comes
--------------------------|
--------------------------|
--9p7---7-----------------|
------(b9)--9p7s5-----------|
--------------------------|
--------------------------|

this is played during the chorus
---------------------------------------|
-----------3s5-----------------5s3-----|
-----------2s4-----------------4s2-----|
--(b9)(b9)7-(b9)--------(b9)(b9)7-(b9)-------------|
--7-7-5-7---------7-7-5-7--------------|
---------------------------------------|		   
AcordesyTabs.com © 2008 Acordes y Tablaturas para guitarra. Tabs and Chords for guitar. Aviso Legal - Contacto
El uso de este sitio está sujeto a la aceptación de los términos y condiciones (16 usuarios online)