tablaturas, partituras y acordes para guitarra
Busca por banda/artista:
 
y/o título de la canción:
A B C D E F G H I J K L M N O P Q R S T U V W X Y Z 0 1 2 3 4 5 6 7 8 9 / Top 100 tabs
Categorías
Usuarios
usuario:
Darse de alta
password:
Artistas más visitados
Publicidad
TOP acordes y tablaturas de Zz top


Estás en: Inicio > Letra Z > Acordes y tablaturas de Zz top > Blue jean blues
Blue jean blues
de Zz top
Puntúa este acorde/tab:      
(0.2/5)
Reportar este acorde/tab
  Añadir a tus favoritos
  Imprimir
Here is the rhythm guitar:

intro (play once)

-----------(b9)--------|---------------|---------------|---------------|
---------------------|-3-------------|-3-------------|-3-------------|
---------------------|-4-------------|-4-------------|-4-------------|
---------------------|-4-------------|-4-------------|-4-------------|
-----7-8-(b9)--------0-|-2-----------0-|-2-----------0-|-2-----------0-|
----------------3----|----------3----|----------3----|----------3----|
 


Progression (play 3 times)

|---------------|---------------|---------------|---------------|
|-3-------------|-3-------------|-3-------------|-3-------------|
|-4-------------|-4-------------|-4-------------|-4-------------|
|-4-------------|-4-------------|-4-------------|-4-------------|
|-2-----------0-|-2-----------0-|-2-----------0-|-2-------------|
|----------3----|----------3----|----------3----|------------2--|

----7----------|-----7----------|---------------|---------------|
----8----------|-----8----------|-3-------------|-3-------------|
----(b9)---------|-----(b9)---------|-4-------------|-4-------------|
----(b9)---------|-----(b9)---------|-4-------------|-4-------------|
----7----------|-----7--------0-|-2-----------0-|-2-------------|
-0---------2-1-|-0----------3---|----------3----|------------3--|
 


---------------|----------------|
---------------|----------------|
---------------|-4--------------|
---------4-----|------0---------|
-------4-------|---------2----0-|
-2-------------|------------3---|
Ending:

-------------|                                     |------------|
-------------|                                     |-3----------|
-------------|<--play this bar four times and....  |-4----------| ....you're
-------------|                                     |-4----------|    done!
-2---------0-|                                     |-2----------|
---------3---|                                     |------------|


As for the lead guitar, it is played almost entirely on the B pentatonic
minor scale at the seventh fret. Since the song is so slow, most people
should be able to figure it out from the recording.		   
AcordesyTabs.com © 2008 Acordes y Tablaturas para guitarra. Tabs and Chords for guitar. Aviso Legal - Contacto
El uso de este sitio está sujeto a la aceptación de los términos y condiciones (21 usuarios online)