tablaturas, partituras y acordes para guitarra
Busca por banda/artista:
 
y/o título de la canción:
A B C D E F G H I J K L M N O P Q R S T U V W X Y Z 0 1 2 3 4 5 6 7 8 9 / Top 100 tabs
Categorías
Usuarios
usuario:
Darse de alta
password:
Artistas más visitados
Publicidad
TOP acordes y tablaturas de The strokes


Reptilia
de The strokes
Puntúa este acorde/tab:      
(0.6/5)
Reportar este acorde/tab
  Añadir a tus favoritos
  Imprimir
Intro
 G|---------------------------------|
 D|-(b9)(b9)(b9)(b9)(b9)(b9)(b9)(b9)(b9)(b9)(b9)(b9)(b9)(b9)(b9)(b9)|
 A|---------------------------------|
 E|---------------------------------|

Base(I)
 G|-------------------------------------------------------------|
 D|-------------------------------------------------------------| (4x)
 A|-------------------------------7-7-7-7-7-7-7-7-7-7-7-7-7-7-7-|
 E|-7-7-7-7-7-7-7-7-7-7-7-7-7-7-7-------------------------------|

Pausa

Base(I)
 G|-------------------------------------------------------------|
 D|-------------------------------------------------------------| (4x)
 A|-------------------------------7-7-7-7-7-7-7-7-7-7-7-7-7-7-7-|
 E|-7-7-7-7-7-7-7-7-7-7-7-7-7-7-7-------------------------------|

Refrão                                                       (5x)
 G|--------------------------------------------------------| (mas depois da 3ºvez
 D|---------------------------------------------11-10-(b9)---| mudará o tempo, mas os
 A|-----------------10-10--12-12--10-10--12-12----------(b9)-| acordes seram os mesmo,
 E|-7-7--(b9)(b9)10-10-----------------------------------------| é facil, só ouvir a musica)

Base(II)
 G|-------------------------------------------------------------|
 D|-(b9)(b9)(b9)(b9)(b9)(b9)(b9)(b9)(b9)(b9)(b9)(b9)(b9)(b9)(b9)------------------------------| (4x)
 A|-------------------------------7-7-7-7-7-7-7-7-7-7-7-7-7-7-7-|
 E|-------------------------------------------------------------|

Base(I)
 G|-------------------------------------------------------------|
 D|-------------------------------------------------------------| (8x)
 A|-------------------------------7-7-7-7-7-7-7-7-7-7-7-7-7-7-7-|
 E|-7-7-7-7-7-7-7-7-7-7-7-7-7-7-7-------------------------------|

Refrão                                                       
 G|--------------------------------------------------------| 
 D|---------------------------------------------11-10-(b9)---| (5x o mesmo esquema do outro)
 A|-----------------10-10--12-12--10-10--12-12----------(b9)-| 
 E|-7-7--(b9)(b9)10-10-----------------------------------------| 

e o Final da musica é igual a intro
 G|---------------------------------|
 D|-(b9)(b9)(b9)(b9)(b9)(b9)(b9)(b9)(b9)(b9)(b9)(b9)(b9)(b9)(b9)(b9)|
 A|---------------------------------|
 E|---------------------------------|		   
AcordesyTabs.com © 2008 Acordes y Tablaturas para guitarra. Tabs and Chords for guitar. Aviso Legal - Contacto
El uso de este sitio está sujeto a la aceptación de los términos y condiciones (35 usuarios online)