tablaturas, partituras y acordes para guitarra
Busca por banda/artista:
 
y/o título de la canción:
A B C D E F G H I J K L M N O P Q R S T U V W X Y Z 0 1 2 3 4 5 6 7 8 9 / Top 100 tabs
Categorías
Usuarios
usuario:
Darse de alta
password:
Artistas más visitados
Publicidad
TOP acordes y tablaturas de The beatles


Let it be
de The beatles
Puntúa este acorde/tab:      
(0.7/5)
Reportar este acorde/tab
  Añadir a tus favoritos
  Imprimir
1ºSolo

(01:45) (2x)

e-------------------
b-10-8-6-5-3-1-0-1-1
g-10-(b9)7-5-3-2-0-2-0
d-------------------
a-------------------
e-------------------


(1:57)

e|-------------------------------------------------8--------------
b|----------------------------------------------------------------
g|-5----5-------------------------5-7b(b9)9b7-5--7b(b9)--9b7-5/7------
D|-5h7--5------------5-5---5--5/7---------------------------------
A|--------7/5-3--5/7-----7----------------------------------------
E|---------------------------------------------------------------- 

e|-----5----------------------------------------------------------
b|----------------------------------------------------------------
g|-7b(b9)--9b7-5----------------------5-5-----5-----8-----8-----8---
D|-------------7p5--------------5/7-----5/7---7b(b9)--7b(b9)--7b(b9)----
A|-----------------5--7p5-3h5-3-----------------------------------
E|---------------------------------------------------------------- 

e|-5------8--10b12--12b10--8/10-8--15b17--------------------------
b|---8/10---------------------------------15b17-13-15-------------
g|----------------------------------------------------------------
D|----------------------------------------------------------------
A|----------------------------------------------------------------
E|----------------------------------------------------------------

e|----------------------------------------------------------------
b|-15/17-15-13-15-13~---------------------------------------------
g|----------------------------------------------------------------
D|----------------------------------------------------------------
A|----------------------------------------------------------------
E|---------------------------------------------------------------- 

2ºSolo

(2:52)

e|-----------------------------------------------------------
b|-----------------------------------------------------------
g|-5---5-----------------------------------------------------
D|-5h7-5h7---------------------------------------------------
A|---------7p5-3h5-3-----------------------------------------
E|----------------------------------------------------------- 

(3:23)

e|-----------------------------------------------------------
b|-----------------------------------------------------------
g|-5---5---5-------------------------------------------------
D|-5h7---7-5-------------------------------------------------
A|-----------7p5-5/7-----------------------------------------
E|----------------------------------------------------------- 

e|-----------------------------------------------------------
b|-----------------------------------------------------------
g|-5---------------------------------------------------------
D|-5---------------------------------------------------------
A|---7p5-3h5-3-5-3-------------------------------------------
E|----------------------------------------------------------- 

e|-----------------------------------------------------------
b|---------------------------5-5-5-----5-----5-----5---------
g|-7b(b9)7b(b9)5/7-5-----5-5-----5-5-5-----5-----5-----5---------
D|---------------5/7-----5h7-------5h7---5h7---5h7-----------
A|-----------------------------------------------------------
E|----------------------------------------------------------- 

e|-----5-----------------------8b10--------------------------
b|--------------------8-8-8-8-------10-8h10------------------
g|-7b(b9)--9b7-5-7--5/7----------------------------------------
D|-----------------------------------------------------------
A|-----------------------------------------------------------
E|----------------------------------------------------------- 

e|-----------------------------------------------------------
b|-8-5-----5-------------------------------------------------
g|-----7-5---5-----5-5---------------------------------------
D|-------------5/7-------------------------------------------
A|-----------------------------------------------------------
E|-----------------------------------------------------------		   
AcordesyTabs.com © 2008 Acordes y Tablaturas para guitarra. Tabs and Chords for guitar. Aviso Legal - Contacto
El uso de este sitio está sujeto a la aceptación de los términos y condiciones (26 usuarios online)