tablaturas, partituras y acordes para guitarra
Busca por banda/artista:
 
y/o título de la canción:
A B C D E F G H I J K L M N O P Q R S T U V W X Y Z 0 1 2 3 4 5 6 7 8 9 / Top 100 tabs
Categorías
Usuarios
usuario:
Darse de alta
password:
Artistas más visitados
Publicidad
TOP acordes y tablaturas de David bowie


Starman
de David bowie
Puntúa este acorde/tab:      
(0.2/5)
Reportar este acorde/tab
  Añadir a tus favoritos
  Imprimir
G||-------|-------|-------|-------|-------|-------|
D||-------|-------|-------|-------|-------|-------|
A||-------|-------|-------|-------|-------|-------|
E||-------|-------|-------|-------|-------|-------|

                          E  E  E  E  E  E  E  E   
-------|-------|-------|--------------------------|
-------|-------|-------|--5--5--------5--5--------|
-------|-------|-------|-----------5-----------5--|
-------|-------|-------|--------------------------|

  E  E  E  E  S S S S S S E   
-----------7------7---7------|
--5--5----------5-------7-5--|
-----------------------------|
-----------------------------|

  E  E  E  E  E  E  E  E     E  E  E  Q    E  E  E   
--------------------------|-------------------------|
--3--3--------3--3--------|--3--3-----3----2--3--5--|
-----------3-----------3--|-------------------------|
--------------------------|-------------------------|

  E  E  E  E  E  E  E  E     E  E  E  Q    E  Q     
--------------------------|------------------------|
--------------------------|------------------------|
--3--3--------3--3--------|--3--3-----3----2--3----|
-----------3-----------3--|------------------------|

  Q    E  E  S S S S S S E    
-----------------------------|
--3----3-----6-6-6-L-8-8-8S--|
-----------------------------|
-----------------------------|

  E  E  E  E  E  E  E  E     E  E  E  E  S S Q    E   
--------------------------|--------------------------|
--5--5--------5--5--------|--5--5-----5------5----4--|
-----------5-----------5--|----------------5---------|
--------------------------|--------------------------|

  E  E  E  E  E  E  E  E     E  E  E  Q    E  E  E   
--------------------------|-------------------------|
--3--3--------3--3--------|--3--3-----3----2--3--5--|
-----------3-----------3--|-------------------------|
--------------------------|-------------------------|

  E  E  E  E  E  E  E  E       E  E  E  Q    E  E  E   
--------------------------|--4g5--L-----5----4--5-----|
-----------------------5--|------------------------5--|
--3--3--------3--3--------|---------------------------|
-----------3--------------|---------------------------|

  W                   W                 
-------------------|-------------------|
--7----------------|--5----------------|
-------------------|-------------------|
-------------------|-------------------|

  Q      E  E  E  E  E  E   
-------0g2--5--------------|
--3------------3--2--3--5--|
---------------------------|
---------------------------|

  Q.       E.  S S S S S E     Q    E  E  Q    E  E    
---------6g7-----7---7------|-------------------------|
---------------7-------5-6--|--7----7--7--5----5------|
--5-------------------------|---------------------5S--|
----------------------------|-------------------------|

  E  E  E  E  E  E  E  E     Q      E  E  E  E  E  E   
--------------------------|-------0g2--L--------------|
--------------------------|--3------------3--2--3--5--|
--3--3--3--3--3--2--3--5--|---------------------------|
--------------------------|---------------------------|

  Q.       E.  S S S S S E   
---------6g7-----7-L--------|
---------------7-----5-L-6--|
--5-------------------------|
----------------------------|

  Q    E  E   E  E  E  E      E  E  E  E  E  E  E  E   
---------------------------|--------------------------|
--7----7--7S--5--5--5------|--------------------------|
-----------------------5S--|--3--3--3--3--3--2--3--5--|
---------------------------|--------------------------|

  Q.     E  E  E  Q       Q    E  E  E  E  E  E   
--3------3--3-----3----|-------------------------|
---------------3-------|--3----3--3--4--4--4--4--|
-----------------------|-------------------------|
-----------------------|-------------------------|

  Q    E  E  Q    Q       E  E  E  E  E  E  Q     
-----------------------|--3--3-----3-----3--3----|
--5----5--5------------|-------------------------|
-------------3---------|-------------------------|
-----------------------|-------------------------|

  E  E  E  E  E  E  Q       E  E  E  E  E  E  Q     
-------------------------|--5--5-----5-----5--5----|
--3--3-----3-----2--3----|-------------------------|
-------------------------|-------------------------|
-------------------------|-------------------------|

  E  E  E  Q    Q    E     E  E  E  E  E  E  Q     
---------------------2--|--3--3-----3-----3--3----|
--3--3-----3----5-------|-------------------------|
------------------------|-------------------------|
------------------------|-------------------------|

  E  E  E  E  E  E  Q       E  E  E  E  E  E  Q     
-------------------------|--5--5-----5-----5-------|
--3--3-----3-----2--3----|-------------------------|
-------------------------|-------------------------|
-------------------------|-------------------------|

  E  E  E  E  E  E  E  E   
-----------------------7--|
--5--L--5--------5--5-----|
--------------------------|
--------------------------|

  E  E  E  E  S S S S S S E   
-----------7------7---7------|
--5--5----------5-------7-5--|
-----------------------------|
-----------------------------|

  E  E  E  E  E  E  E  E     E  E  E  Q    E  E  E   
--------------------------|-------------------------|
--3--3-----------3--3-----|--3--3-----3----2--3--5--|
-----------------------3--|-------------------------|
--------------------------|-------------------------|

  E  E  E  E  E  E  E  E     E  E  E  Q    E  Q     
--------------------------|------------------------|
--------------------------|------------------------|
--3--L--3-----3--3--3-----|--3--3-----3----2--3----|
-----------------------3--|------------------------|

  Q    E  E  S S S S S S E    
-----------------------------|
--3----3-----6-6-6-L-8-8-8S--|
-----------------------------|
-----------------------------|

  E  E  E  S S E  E  E  S S  
----------------------------|
--5--5-------3-5--5-------3-|
-----------5------------5---|
----------------------------|

  E  E  E  S S S S E  E  E     E  E  E  E  E  E  E  E   
----------------------------|--------------------------|
--5--5-----5-5--------5--4--|--3--3--------3--3--------|
-----------------5-5--------|-----------3-----------3--|
----------------------------|--------------------------|

  E  E  E  Q    E  E  E      E  E  E  E  E  E  E  E   
--------------------------|--------------------------|
--3--3-----3----2--3------|--------------------------|
----------------------2S--|--3--3--------3--3--------|
--------------------------|-----------3-----------3--|

  E  Q    E    E  E  E  E     W                 
-------------4g5--5--5-----|-------------------|
----------5-------------5--|--7----------------|
--3--L---------------------|-------------------|
---------------------------|-------------------|

  W                   Q      E  E  E  E  E  E   
-------------------|-------0g2--5--------------|
--5----------------|--3------------3--2--3--5--|
-------------------|---------------------------|
-------------------|---------------------------|

  Q.       E.  S S S S S E     Q    E  E  Q    E  E    
---------6g7-----7---7------|-------------------------|
---------------7-------5-6--|--7----7--7--5----5------|
--5-------------------------|---------------------5S--|
----------------------------|-------------------------|

  E  E  E  E  E  E  E  E     E  E    E  E  E  E  E  E   
--------------------------|--------0g2--5--------------|
--------------------------|--3--3----------3--2--3--5--|
--3--3--3--3--3--2--3--5--|----------------------------|
--------------------------|----------------------------|

  Q.       E.  S S S S S E   
---------6g7-----7-L-7------|
---------------7-------5-6--|
--5-------------------------|
----------------------------|

  Q    E  E   E  E  E  E      E  E  E  E  E  E  E  E   
---------------------------|--------------------------|
--7----7--7S--5--5--5------|--------------------------|
-----------------------5S--|--3--3--3--3--3--2--3--5--|
---------------------------|--------------------------|

  Q.     E  E  E  Q       Q    E  E  E  E  E  E   
--3------3--3-----3----|-------------------------|
---------------3-------|--3----3--3--4--L--4--4--|
-----------------------|-------------------------|
-----------------------|-------------------------|

  Q    E  E  Q    Q       Q      E  E  E  E  E  E   
-----------------------|-------0g2--5--------------|
--5----5--5------------|--3------------3--2--3--5--|
-------------3---------|---------------------------|
-----------------------|---------------------------|

  Q.       E.  S S S S S E     Q    E  E  Q    E  E    
---------6g7-----7---7------|-------------------------|
---------------7-------5-6--|--7----7--7--5----5------|
--5-------------------------|---------------------5S--|
----------------------------|-------------------------|

  E  E  E  E  E  E  E  E     E  E    E  E  E  E  E  E   
--------------------------|--------0g2--5--------------|
--------------------------|--3--3----------3--2--3--5--|
--3--3--3--3--3--2--3--5--|----------------------------|
--------------------------|----------------------------|

  Q.       E.  S S S S S E   
---------6g7-----7-L-7------|
---------------7-------5-6--|
--5-------------------------|
----------------------------|

  Q    E  E   E  E  E  E      E  E  E  E  E  E  E  E   
---------------------------|--------------------------|
--7----7--7S--5--5--5------|--------------------------|
-----------------------5S--|--3--3--3--3--3--2--3--5--|
---------------------------|--------------------------|

  Q.     E  E  E  Q       Q    E  E  E  E  E  E   
--3------3--3-----3----|-------------------------|
---------------3-------|--3----3--3--4--L--4--4--|
-----------------------|-------------------------|
-----------------------|-------------------------|

  Q    E  E  Q    Q       E  E  E  E  E  E  Q     
-----------------------|--3--3-----3-----3--3----|
--5----5--5------------|-------------------------|
-------------3---------|-------------------------|
-----------------------|-------------------------|

  E  E  E  E  E  E  Q       E  E  E  E  E  E  Q     
-------------------------|--5--5-----5-----5--5----|
--3--3-----3-----2--3----|-------------------------|
-------------------------|-------------------------|
-------------------------|-------------------------|

  E  E  E  Q    Q    E     E  E  E  E  E  E  Q     
---------------------2--|--3--3-----3-----3--3----|
--3--3-----3----5-------|-------------------------|
------------------------|-------------------------|
------------------------|-------------------------|

  E  E  E  E  E  E  Q       E  E  E  E  E  E  Q     
-------------------------|--5--5-----5-----5--5----|
--3--3-----3-----2--3----|-------------------------|
-------------------------|-------------------------|
-------------------------|-------------------------|

  E  E  E  Q    Q    E     E  E  E  E  E  E  Q     
---------------------2--|--3--3-----3-----3--3----|
--3--3-----3----5-------|-------------------------|
------------------------|-------------------------|
------------------------|-------------------------|

  E  E  E  E  E  E  Q       E  E  E  E  E  E  Q     
-------------------------|--5--5-----5-----5--5----|
--3--3-----3-----2--3----|-------------------------|
-------------------------|-------------------------|
-------------------------|-------------------------|

  E  E  E  Q    Q    E     E  E  E  E  E  E  Q     
---------------------2--|--3--3-----3-----3--3----|
--3--3-----3----5-------|-------------------------|
------------------------|-------------------------|
------------------------|-------------------------|

  E  E  E  E  E  E  Q       E  E  E  E  E  E  Q     
-------------------------|--5--5-----5-----5--5----|
--3--3-----3-----2--3----|-------------------------|
-------------------------|-------------------------|
-------------------------|-------------------------|

  E  E  E  Q    Q    E     E  E  E  E  E  E  Q     
---------------------2--|--3--3-----3-----3--3----|
--3--3-----3----5-------|-------------------------|
------------------------|-------------------------|
------------------------|-------------------------|

  E  E  E  E  E  E  Q       E  E  E  E  E  E  Q     
-------------------------|--5--5-----5-----5--5----|
--3--3-----3-----2--3----|-------------------------|
-------------------------|-------------------------|
-------------------------|-------------------------|

  E  E  E  Q    Q    E     E  E  E  E  E  E  Q     
---------------------2--|--3--3-----3-----3--3----|
--3--3-----3----5-------|-------------------------|
------------------------|-------------------------|
------------------------|-------------------------|

  E  E  E  E  E  E  Q       E  E  E  E  E  E  Q     
-------------------------|--5--5-----5-----5--5----|
--3--3-----3-----2--3----|-------------------------|
-------------------------|-------------------------|
-------------------------|-------------------------|

  E  E  E  Q    Q    E     E  E  E  E  E  E  Q     
---------------------2--|--3--3-----3-----3--3----|
--3--3-----3----5-------|-------------------------|
------------------------|-------------------------|
------------------------|-------------------------|

  E  E  E  E  E  E  Q       E  E  E  E  E  E  Q     
-------------------------|--5--5-----5-----5--5----|
--3--3-----3-----2--3----|-------------------------|
-------------------------|-------------------------|
-------------------------|-------------------------|

  E  E  E  Q    Q    E     E  E  E  E  E  E  Q     
---------------------2--|--3--3-----3-----3--3----|
--3--3-----3----5-------|-------------------------|
------------------------|-------------------------|
------------------------|-------------------------|

  E  E  E  E  E  E  Q      
-------------------------||
--3--3-----3-----2--3----||
-------------------------||
-------------------------||		   
AcordesyTabs.com © 2008 Acordes y Tablaturas para guitarra. Tabs and Chords for guitar. Aviso Legal - Contacto
El uso de este sitio está sujeto a la aceptación de los términos y condiciones (72 usuarios online)