tablaturas, partituras y acordes para guitarra
Busca por banda/artista:
 
y/o título de la canción:
A B C D E F G H I J K L M N O P Q R S T U V W X Y Z 0 1 2 3 4 5 6 7 8 9 / Top 100 tabs
Categorías
Usuarios
usuario:
Darse de alta
password:
Artistas más visitados
Publicidad
TOP acordes y tablaturas de Fall out boy


Fame infamy
de Fall out boy
Puntúa este acorde/tab:      
(0.9/5)
Reportar este acorde/tab
  Añadir a tus favoritos
  Imprimir
Tuning: Standard

Intro
G|-------------------------------------------------------------------|
D|-------------------------------------------------------------------|
A|-33333333----------11111111----------------------------------------|
E|----------44444444----------33333333-44444444-11111111-43-43-43-43-| x2

Verse:
G|--------------------------------------------------------------------------|
D|--------------------------------------------------------------------------|
A|------------33-3-33-------------------------------------------------------|
E|-3-43-43-43---------444-4-44-666-6-66-333-3-33-444-4-44-111-1-11-43-43-43-|

Pre-Chorus/Chorus: "When I'm home alone..."
G|-----------------------------------------|
D|-----------------------------------------|
A|-3-6------------------33-3-33-3-33-3-3-6-|
E|------11-1-11-11-1-11--------------------| x3

Chorus: "Signing off..."
G|------------------------------------------------------|
D|------------------------------------------------------|
A|------------------------------------------------------|
E|-44444444-66666666-1111111111111111-44444444-66666666-|

Back to Intro x1

Verse
G|---------------------------------------------------------------|
D|---------------------------------------------------------------|
A|-33-3-33-------------------------------------------------------|
E|---------444-4-44-666-6-66-333-3-33-444-4-44-111-1-11-43-43-43-| x2

Pre-chorus/Chorus x3
Chorus x1

Bridge I'm not too sure about the rhythm, but these are the correct notes.
G|----------------------------------------------------------------|
D|----------------------------------------------------------------|
A|-3~--3-3-3-3-3-3-3----------------------------------------------|
E|-------------------4-4-4-4-4-4-4-4-1-1-1-1-1-1-1-3-3-3-3-3-3-3-3| 

Pre-Chorus/Chorus x3

Chorus/Ending:
G|-------------------------------------|--------------------------------------|
D|-------------------------------------|--------------------------------------|
A|----------11111111-33333333----------|---------11111111-3333333--------3-5-6|
E|-44444444-------------------33333333-|-4444444------------------333333------|

G|------------------------------------|
D|------------------------------------|
A|---------111-1-11-333-3-33----------|
E|-44-4-44-------------------333-3-33-| x2		   
AcordesyTabs.com © 2008 Acordes y Tablaturas para guitarra. Tabs and Chords for guitar. Aviso Legal - Contacto
El uso de este sitio está sujeto a la aceptación de los términos y condiciones (37 usuarios online)