tablaturas, partituras y acordes para guitarra
Busca por banda/artista:
 
y/o título de la canción:
A B C D E F G H I J K L M N O P Q R S T U V W X Y Z 0 1 2 3 4 5 6 7 8 9 / Top 100 tabs
Categorías
Usuarios
usuario:
Darse de alta
password:
Artistas más visitados
Publicidad
TOP acordes y tablaturas de Daphne loves derby


Part of my past
de Daphne loves derby
Puntúa este acorde/tab:      
(0.3/5)
Reportar este acorde/tab
  Añadir a tus favoritos
  Imprimir
Verse:
E|-----------------------------------------------------]
B|-3-3-3-3-3-3-3--3-3-3-3~-3--3-3-3-3-3-3-3-3-------3~-]
G|-2-2-2-2-2-2-2--2-2-2-2~-2--2-2-2-2-2-2-2-2-----2~---]
D|-0-0-0-0-0-0-0--0-0-0-0~-0--0-0-0-0-0-0-0-0---0~-----]
A|-0-0-0-0-0-0-0--2-2-0-------2-2-2-2-0-0-0-0----------]
E|----------------------3~-3------------------3~-------]

E|---------------------------------------------~-]
B|-3-3-3-3-3-3-3--3-3-3-3~-3--3-3-3-3-3-3-3-3-3~-]
G|-2-2-2-2-2-2-2--2-2-2-2~-2--2-2-2-2-2-2-2-2-2~-]
D|-0-0-0-0-0-0-0--0-0-0-0~-0--0-0-0-0-0-0-0-0-0~-]
A|-0-0-0-0-0-0-0--2-2-0-------2-2-2-2-0-0-0-0--~-]
E|----------------------3~-3------------------3~-]

Prechorus:
E|--------------------------------------------~-----]
B|-3-3-3--3-3-3--3-3-3--3-3-3--3-3-3--3-3-3--3~-----]
G|-2-2-2--2-2-2--2-2-2--2-2-2--2-2-2--2-2-2--2~-(7)-]
D|-0-0-0--0-0-0--0-0-0--0-0-0--0-0-0--0-0-0--0~-(5)-]
A|-2-2-2----------------0-0-0--2-2-2----------~-----]
E|--------2-2-2--3-3-3----------------2-2-2--3~-----]

Chorus:
E|-------------------------------]
B|-3-3-3-3-3-3-3--3-3-3-3-3-3-3--]
G|-2-2-2-2-2-2-2--2-2-2-2-2-2-2--]
D|-0-0-0-0-0-0-0--0-0-0-0-0-0-0--]-3
A|-0-0-0-0-0-0-0-----------------]
E|----------------3-3-3-3-3-3-3--]

E|---------------------------]
B|-3--3--3--3--3--3--3--3--3-]
G|-2--2--2--2--2--2--2--2--2-]
D|-0--0--0--0--0--0--0--0--0-]
A|-2--2--2--2--0--0--0--0----]
E|-------------------------3-]

Verse
Prechorus
Chorus
Verse
Prechorus
Chorus

Verse:
Make this ride as fast as I can.
Tonight this road home feels a little longer.
I hope you know that you were my best friend.
Tonight I said goodbye, but I should have said more.

Prechorus:
Thanks for the best time of my life.
(Thanks for the best)

Chorus:
Come home.
Now that you're gone, i've finally realized, 
that you were the best.
Come home.
I won't forget the times that we had.
I'm wishing that you weren't a part of my past.

Verse:
Emptiness swallows this town.
From now on I will be alone for good.
Will you remember my name?
I'm hoping that I will hear from you soon.

Prechorus:
(Thank you for everything)

Chorus:
Come home.
Now that you're gone, i've finally realized,
that you were the best.
Come home.
I won't forget the times that we had.
So please don't be a part of my past.		   
AcordesyTabs.com © 2008 Acordes y Tablaturas para guitarra. Tabs and Chords for guitar. Aviso Legal - Contacto
El uso de este sitio está sujeto a la aceptación de los términos y condiciones (36 usuarios online)