tablaturas, partituras y acordes para guitarra
Busca por banda/artista:
 
y/o título de la canción:
A B C D E F G H I J K L M N O P Q R S T U V W X Y Z 0 1 2 3 4 5 6 7 8 9 / Top 100 tabs
Categorías
Usuarios
usuario:
Darse de alta
password:
Artistas más visitados
Publicidad
TOP acordes y tablaturas de Fall out boy


Estás en: Inicio > Letra F > Acordes y tablaturas de Fall out boy > I'm like a lawyer with the way i'm always trying to get you off (me &a
I'm like a lawyer with the way i'm always trying to get you off (me &a
de Fall out boy
Puntúa este acorde/tab:      
(0.4/5)
Reportar este acorde/tab
  Añadir a tus favoritos
  Imprimir
Intro:
G|------------------------------------|
D|------------------------------------|
A|-1/8---1-1/8-8-1-1/8-8--------------|
E|------------------------1-1-2-2-2-2-|

Pre-Chorus
"We're the new face of failure..."
G|----------------------------------------|
D|3-----------------3---------------------|
A|--3-0-3--1-3-4-6----3-0-3-11-33-44-66---|
E|----------------------------------------|

"Bullet proof..."
G|-------------------------------------|
D|-------------------------------------|
A|----------4-4-4-4--------------------|
E|4-4-4-4-4---------22222222-1111-4444-|

Chorus:
G|------------------------------------------------------------------|
D|------------------------------------------------------------------|
A|------------------------------------------------------------------|
E|-9999999(b9)66666666-2222222222222222-66666666-9999999(b9)22222222-4~-|


Verse: "Collect the bad habits..."
G|-------------------------------------|
D|-------------------------------------|
A|-1-1/8-8--1-1/8-8---1-1--------------|
E|------------------------1-1--2-2-2-2-| x2

Pre-Chorus
G|--------------------------------------------------------------------------|
D|3-----------------3-------------------------------------------------------|
A|--3-0-3--1-3-4-6----3-0-3-11-33-44-66----------44444444-------------------|
E|--------------------------------------444444444---------22222222-1111-4444|

Chorus x2

Bridge "The Best Way..."
G|---------------------------------------------------------------------------|
D|---------------------------------------------------------------------------|
A|-1/8--11111111----------44444444----------11111111-----------------------4~|
E|---------------22222222----------11111111----------22222222-44444444-4444--|

Chorus:
G|----------------------------------------------------|   |-----|
D|----------------------------------------------------|   |-----|
A|------------------11111111-44444444-----------------|   |-----|
E|-222222222222222--------------------2222222222222222|x2 |-2~--|		   
AcordesyTabs.com © 2008 Acordes y Tablaturas para guitarra. Tabs and Chords for guitar. Aviso Legal - Contacto
El uso de este sitio está sujeto a la aceptación de los términos y condiciones (22 usuarios online)