tablaturas, partituras y acordes para guitarra
Busca por banda/artista:
 
y/o título de la canción:
A B C D E F G H I J K L M N O P Q R S T U V W X Y Z 0 1 2 3 4 5 6 7 8 9 / Top 100 tabs
Categorías
Usuarios
usuario:
Darse de alta
password:
Artistas más visitados
Publicidad
TOP acordes y tablaturas de Fall out boy


Estás en: Inicio > Letra F > Acordes y tablaturas de Fall out boy > It's hard to say i do when i don't
It's hard to say i do when i don't
de Fall out boy
Puntúa este acorde/tab:      
(0.7/5)
Reportar este acorde/tab
  Añadir a tus favoritos
  Imprimir
Intro
G|-------------------------------|----------------------------|
D|-------------------------------|----------------------------|
A|------------3-1-----------3-1--|-----------3-1-----------1~-|
D|-5555-3333------1111-3333------|-5555-3333-----111111111----|

Verse
G|-------------------|    |---------------------------------|
D|-------------------|    |---------------------------------|
A|-------------------|    |-111111111111111-555555555555555-|
D|-3-555-xxx-x-x-xx--| x2 |---------------------------------|

G|-------------------|
D|-------------------|
A|-------------------|
D|-3-555-xxx-x-x-xx--| x2

Pre-Chorus "you're appealing to emotions.."
G|-------------------------|    |-------------------------------------------|
D|-------------------------|    |-------------------------------------------|
A|-----------------111-----|    |-------------------------------------------|
D|-111-0-111-1/555-----333-| x2 |11111111-3333333-5555-33333-11111-00-11111-|

Chorus "So put your hands..."
G|--------------------------------|
D|--------------------------------|
A|-11-----------------------------|
D|----33-55-11-1/55-11-0000-11-33-| x2

Verse "When I said.."
G|---------------------------------|
D|---------------------------------|
A|-111111111111111-555555555555555-|
D|---------------------------------| 

G|-------------------|    |---------------------------------|
D|-------------------|    |---------------------------------|
A|-------------------|    |-111111111111111-555555555555555-|
D|-3-555-xxx-x-x-xx--| x2 |---------------------------------|

G|-------------------|
D|-------------------|
A|-------------------|
D|-3-555-xxx-x-x-xx--| x2

Pre-Chorus
G|-------------------------|-------------------------------------------|
D|-------------------------|-------------------------------------------|
A|-----------------111-----|-------------------------------------------|
D|-111-0-111-1/555-----333-|11111111-3333333-5555-33333-11111-00-11111-|

Chorus
G|--------------------------------|
D|--------------------------------|
A|-11-----------------------------|
D|----33-55-11-1/55-11-0000-11-33-| 

Second time chorus
G|-------------------------------------------------------------------------|
D|-------------------------------------------------------------------------|
A|-111111111---------------------------------------------------------------|
D|-----------33333333-55555555-111111-1/55555555-11111111-0000000-111-3333-| 

Bridge
G|-------------------------------|-------------------------|
D|-------------------------------|-------------------------|
A|------------3-1-----------3-1--|-----------3-1-----------|
D|-5555-3333------1111-3333------|-5555-3333-----111111111-|

Chorus
G|-------------------------------------------------------------------------|
D|-------------------------------------------------------------------------|
A|-111111111---------------------------------------------------------------|
D|-----------33333333-55555555-111111-1/55555555-11111111-0000000-111-3333-| 

G|-----------------------------------------------------|
D|-----------------------------------------------------|
A|-111111111-------------------------------------------|
D|-----------33333333-55555555-111111-1/55555555-1~--0-|		   
AcordesyTabs.com © 2008 Acordes y Tablaturas para guitarra. Tabs and Chords for guitar. Aviso Legal - Contacto
El uso de este sitio está sujeto a la aceptación de los términos y condiciones (27 usuarios online)