tablaturas, partituras y acordes para guitarra
Busca por banda/artista:
 
y/o título de la canción:
A B C D E F G H I J K L M N O P Q R S T U V W X Y Z 0 1 2 3 4 5 6 7 8 9 / Top 100 tabs
Categorías
Usuarios
usuario:
Darse de alta
password:
Artistas más visitados
Publicidad
TOP acordes y tablaturas de Fall out boy


Golden
de Fall out boy
Puntúa este acorde/tab:      
(0.4/5)
Reportar este acorde/tab
  Añadir a tus favoritos
  Imprimir
Intro (Clean)

Guitar 1
  . . .   . . . . . . . . . . . . . . . .
E|-----------------------------------------|
B|-----------------------------------------|    
G|-5-5-5-5-5-5-5-5-5-5-5-8-8-8-3-3/5-5-5-|    
D|-5-5-5-5-5-5-5-5-5-5-5-8-8-8-4-4/5-5-5-|
A-3-3-3-3-3-3-3-3-3-3-3-6-6-6-1-1/3-3-3-|
E|-----------------------------------------|
  . . .   . . . . . . . . . . . . . . . .

  . . . . . . . . . . . . . . . . . .
E|-------------------------------------------------|
B|-------------------------------------------------|    
G|-5-5-5-5-5-5-5-5-5-5-5-5-5-5-5-5-5-5-5-5-5-5-5-5-|    
D|-5-5-5-5-5-5-5-5-5-5-5-5-5-5-5-5-5-5-5-5-6-6-6-6-|
A-3-3-3-3-3-3-3-3-3-3-3-3-3-3-3-3-3-3-3-3-3-3-3-3-|
E|-------------------------------------------------|
  . . . . . . . . . . . . . . . . . .

Chorus Riff  (Distrotion)

E|-------------------------------|   
B|-------------------------------|   x4
G|----------------------8--8-8-0-|    
D|-3--3-3-5--5-5-6--6-6-8--8-8-0-|
A-3--3-3-6--6-6-4--4-4-6--6-6-0-|
E|-1--1-1-3--3-3-4--4-4----------|

Verse (Clean)

E|--------------------------------------------|
B|--------------------------------------------|    
G|-5---------3--------5--------------3-3-5-55-|    
D|-5--(x40)--4--(x8)--5--(x8)--5-5-5x4-4-5-55-|
A|-3---------1--------3--------6-6-6x1-1-3-33-|
E|-----------------------------3-3-3x---------|

E|-----------------------------|
B|-----------------------------|    
G|-5---------3-----------------|    
D|-5--(x8)---4--(x8)--3--------|
A|-3---------1--------3--(x16)-|
E|--------------------1--------|  

E|---------------------|          |----------|
B|---------------------|    x3    |----------|
G|-5---------3---------|          |----------|
D|-5--(x8)---4--(x8)---|          |-3--------| > Gradually build up
A|-3---------1---------|          |-3--(x16)-|
E|---------------------|          |-1--------|

<>

Post Chorus (Clean)

E|----------|
B|----------|    
G|-5--------|    
D|-5--(x16)-|
A|-3--------|
E|----------|

<>

<>

Outro (Distortion)

E|-----------------------------------------|
B|----------6-6-6666--------------6-6-6666-|    
G|-5-5-5555-5-5-5555-6-5-5-5-5555-5-5-5555-|    
D|-5-5-5555-3-3-3333-----5-5-5555-3-3-3333-|
A|-3-3-3333--------------3-3-3333----------|
E|-----------------------------------------|		   
AcordesyTabs.com © 2008 Acordes y Tablaturas para guitarra. Tabs and Chords for guitar. Aviso Legal - Contacto
El uso de este sitio está sujeto a la aceptación de los términos y condiciones (29 usuarios online)