tablaturas, partituras y acordes para guitarra
Busca por banda/artista:
 
y/o título de la canción:
A B C D E F G H I J K L M N O P Q R S T U V W X Y Z 0 1 2 3 4 5 6 7 8 9 / Top 100 tabs
Categorías
Usuarios
usuario:
Darse de alta
password:
Artistas más visitados
Publicidad
TOP acordes y tablaturas de Iron maiden


Estás en: Inicio > Letra I > Acordes y tablaturas de Iron maiden > For the greater good of god
For the greater good of god
de Iron maiden
Puntúa este acorde/tab:      
(0.6/5)
Reportar este acorde/tab
  Añadir a tus favoritos
  Imprimir
Intro; Part 1
G|----------------------7(b9)------------------------3/5-|
D|------------------------------------------------------|
A|-------------7-------5/7------------------7-------5/7-|
E|0-----5h7--------------------0-----5h7----------------|

G|-----------------------7(b9)-----------------------12/14-|
D|--------------------------------------------------------|
A|--------------7-------5/7----------------7--------10/12-|
E|0-----5/7------------------0-----5h7--------------------|

                       Intro; Part 2
                            0:18
G|--------------------------------------------------------|
D|-----5-4------------5-4--------------5-4--------7---4-5-|
A|-----------7---------------7----------------7-----------|
E|0--------------0----------------0-----------------------|

G|-----------------------------------------------------|
D|---5-4------------5-4--------------5-4--------5------| X2
A|---------7---------------7----------------7------5-7-|
E|0-------------0----------------0---------------------|

                           Verse 1:
                            0:44
G|------(b9)--(b9)---------5---5----------------------7---7--|
D|----(b9)--(b9)---------5---5---------5---5--------7---7----| X8
A|7-------------3----------------5---5------5------------|
E|---------------------------3---------------------------|

                               Distortion Enters
                                      1:31
G|-----------------------------------------------------------------------|
D|-----------------------------------------------------------------------| X4
A|--7-7-7-7-7-7-7-7---3-3-3-3-3-3-3-3---------------------5-5-5-5-5-5-5--|
E|--------------------------------------3-3-3-3-3-3-3-3------------------|

                                      1:52
G|--------------------------------------------------------------------------|
D|--------------------------------------------------------------------------|
A| 0-0-0-0-0-0-0-0-0-0-0-0-0-0-0-0--3-3-3-3-3-3-3-3--5-5-5-5-5-5-5----------|
E|--------------------------------------------------------------------------|

                                   Pre chorus
                                      1:57
G|---------------------------------------------------------------------------|
D|---------------------------------------------------------------------------|
A|7--777--777--777--777--777--777--777--333--333--333-------------------5-55-|
E|-----------------------------------------------------3--333--333--33-------|

G|---------------------------------------------------------------------------|
D|---------------------------------------------------------------------------|
A|7--777--777--777--777--777--777—777--000--000--000--003--333--335--555--55-|
E|---------------------------------------------------------------------------|

                                      Verse 2
                                       2:15
G|-----------------------------------------------------------------------|
D|-----------------------------------------------------------------------| X4
A|7-7-7-7-7-7-7-7---3-3-3-3-3-3-3-3---------------------5-5-5-5-5-5-5----|
E|------------------------------------3-3-3-3-3-3-3-3--------------------|

                                    Pre Chorus
                                       2:38
G|---------------------------------------------------------------------------|
D|---------------------------------------------------------------------------|
A|7--777--777--777--777--777--777--777--333--333--333-------------------5-55-|
E|-----------------------------------------------------3--333--333--33-------|

G|---------------------------------------------------------------------------|
D|---------------------------------------------------------------------------|
A|7--777--777--777--777--777--777—777--000--000--000--003--333--335--555--55-|
E|---------------------------------------------------------------------------|

                                    Verse 3
                                      2:55
G|------------------------------------------------------------------------------|
D|------------------------------------------------------------------------------| X8
A|--7-7-7-7-7-7-7-7---3-3-3-3-3-3-3-3---------------------5-5-5-5-5-5-5---------|
E|--------------------------------------3-3-3-3-3-3-3-3-------------------------|

                                      3:38
G|-----------------------------------------------------------------------------|
D|-----------------------------------------------------------------------------|
A|0-0-0-0-0-0-0-0-0-0-0-0-0-0-0-0--3-3-3-3-3-3-3-3--5-5-5-5-5-5-5--------------|
E|-----------------------------------------------------------------------------|

                                   Pre Chorus
                                      3:43
G|---------------------------------------------------------------------------|
D|---------------------------------------------------------------------------|
A|7--777--777--777--777--777--777--777--333--333--333-------------------5-55-|
E|-----------------------------------------------------3--333--333--33-------|

G|---------------------------------------------------------------------------|
D|---------------------------------------------------------------------------|
A|7--777--777--777--777--777--777—777--000--000--000--003--333--335--555--55-|
E|---------------------------------------------------------------------------|

                                  Chorus
                                   4:18
G|(b9)-----------------------------------5----------------------------------|
D|(b9)-----------------------------------5----------------------------------|
A|7--777--777--777--777--777--777—777--3--333--333--333-------------------|
E|-------------------------------------------------------3--333--333--333-|

G|(b9)-----------------------------------2-------------------5---------7------|
D|(b9)-----------------------------------2-------------------5---------7------|
A|7--777--777--777--777--777--777—777--0--000--000--000--003--333--335--555-|
E|--------------------------------------------------------------------------|

G|(b9)-----------------------------------5----------------------------------|
D|(b9)-----------------------------------5----------------------------------|
A|7--777--777--777--777--777--777—777--3--333--333--333-------------------|
E|-------------------------------------------------------3--333--333--333-|

G|(b9)-----------------------------------2-------------------5---------7------|
D|(b9)-----------------------------------2-------------------5---------7------|
A|7--777--777--777--777--777--777—777--0--000--000--000--003--333--335--555-|
E|--------------------------------------------------------------------------|
                               Interlude

                                 4:52
G|--------------------------------------------------------|
D|-----5-4------------5-4--------------5-4--------7---4-5-|
A|-----------7---------------7----------------7-----------|
E|0--------------0----------------0-----------------------|

G|-----------------------------------------------------------|
D|--------5-4------------5-4--------------5-4--------5-------| X2
A|-------------7---------------7----------------7-------5-7--|
E|0-----------------0----------------0-----------------------|

                                 5:07
G|-----------------------------------------------------------------------|
D|-----------------------------------------------------------------------|
A|--7--777--7--777--7--777----7-7-7----3--333--3--333--5--555--5-5-5-----|
E|-----------------------------------------------------------------------|

G|---------------------------------------------------------------------------|
D|---------------------------------------------------------------------------|
A|7--777--7--777--7--777----7-7-7------0--000--0--000--3--333--5-5-5---------| X2
E|---------------------------------------------------------------------------|

                                 5:35
G|--------------------------------------------------------------------------|
D|--------------------------------------------------------------------------|
A|77-7--777-7--777-7--777-7--777-7--777-7--733-3--333-3--355-5--555-5--5----|
E|--------------------------------------------------------------------------|

G|-----------------------------------------------------------------------|
D|-----------------------------------------------------------------------|
A|----------------------------33-3--333-355--5-5--00--0-0----------------| X2
E|55-5--555-5--555-5--555-5--5-------------------------------------------|

                                 6:08
G|-----------------------------------------------------------------------|
D|-----------------------------------------------------------------------|
A|-----------------------------------------------------------------------| X4
E|----7h8h7-000--7-0-5-0-3-0---5-3-000-5-0-3-0-2-0-----------------------|


                                   6:19
G|----------------------------------------------------------------------|
D|----------------------------------------------------------------------|
A|---22-2--233-3--3--------------------22-2--233-3--3-------------------| X2
E|---------------------33-3--355--5----------------------33-3--35--5----|

                                  6:33
G|----------------------------------------------------------------------|
D|----------------------------------------------------------------------|
A|----------------------------------------------------------------------| X4
E|----7h8h7-000--7-0-5-0-3-0---5-3-000-5-0-3-0-2-0----------------------|

                                                                                         
                       6:47
G|-------------------------------------------------------------------|
D|-------------------------------------------------------------------|
A|---22-2--233-3--3--------------------22-2--233-3--3----------------| X2
E|---------------------33-3--355--5----------------------33-3--35--5-|

                          7:00
G|--------------------------------------------------------|
D|--------------------------------------------------------|
A|----77-7--77---33-3--33--------------55-5--55-----------|
E|---------------------------33-3--33---------------------|

G|---------------------------------------------------------|
D|--------------------------------------55-5--55-----------|X2
A|-77-7--77---33-3--33---55-5--55--------------------------|
E|--------------------------------------3--3--3------------|

                               Pre Chorus
                                  7:28
G|---------------------------------------------------------------------------|
D|---------------------------------------------------------------------------|
A|7--777--777--777--777--777--777--777--333--333--333-------------------5-55-|
E|-----------------------------------------------------3--333--333--33-------|

G|---------------------------------------------------------------------------|
D|---------------------------------------------------------------------------|
A|7--777--777--777--777--777--777—777--000--000--000--003--333--335--555--55-|
E|---------------------------------------------------------------------------|

                                 Chorus
                                  8:04
G|(b9)-----------------------------------5----------------------------------|
D|(b9)-----------------------------------5----------------------------------|
A|7--777--777--777--777--777--777—777--3--333--333--333-------------------|
E|-------------------------------------------------------3--333--333--333-|

G|(b9)-----------------------------------2-------------------5---------7------|
D|(b9)-----------------------------------2-------------------5---------7------|
A|7--777--777--777--777--777--777—777--0--000--000--000--003--333--335--555-|
E|--------------------------------------------------------------------------|


G|(b9)-----------------------------------5----------------------------------|
D|(b9)-----------------------------------5----------------------------------|
A|7--777--777--777--777--777--777—777--3--333--333--333-------------------|
E|-------------------------------------------------------3--333--333--333-|

                                   Ritard
G|(b9)-----------------------------------2-------------------5---------7------|
D|(b9)-----------------------------------2-------------------5---------7------|
A|7--777--777--777--777--777--777—777--0--000--000--000--003--333--335--555-|
E|--------------------------------------------------------------------------|
                                  Outro
                                  8:43
G|-------------(b9)--(b9)----------5--5-----------------------------7--7---|
D| ----------(b9)--(b9)-----------5---5------------5--5-----------7---7----| X3
A|-----7-----------------3-------------------5---5--------5------------|
E|----------------------------------------3----------------------------|

                                 9:02
G|--------2---2----------2---2-----------5---5---------7---7-|
D|------2---2----------2---2-----------5---5--------7---7----|
A|--0--------------0---------------3------------5------------|
E|-----------------------------------------------------------|

G|-----------------------------------------------------------|
D|--------5p4------------5-4--------------5-4--------5-------|
A|-------------7---------------7----------------7--------5/7-|
E|0-----------------0----------------0-----------------------|		   
AcordesyTabs.com © 2008 Acordes y Tablaturas para guitarra. Tabs and Chords for guitar. Aviso Legal - Contacto
El uso de este sitio está sujeto a la aceptación de los términos y condiciones (32 usuarios online)