tablaturas, partituras y acordes para guitarra
Busca por banda/artista:
 
y/o título de la canción:
A B C D E F G H I J K L M N O P Q R S T U V W X Y Z 0 1 2 3 4 5 6 7 8 9 / Top 100 tabs
Categorías
Usuarios
usuario:
Darse de alta
password:
Artistas más visitados
Publicidad
TOP acordes y tablaturas de Anbelin


Estás en: Inicio > Letra A > Acordes y tablaturas de Anbelin > Alexithymia
Alexithymia
de Anbelin
Puntúa este acorde/tab:      
(0.1/5)
Reportar este acorde/tab
  Añadir a tus favoritos
  Imprimir
Intro - Bass

Guitar 1 - Verse 1 - Clean
|-----0---0-----0-----0---0-----0-----0---0-----0-----0---0-----0-|x6
|---5---5-----5-----0---0-----0-----4---4-----4-----4---4-----4---|
|-6---------6-----2---------2-----4---------4-----4---------4-----|
|-----------------------------------------------------------------|
|-----------------------------------------------------------------|
|-----------------------------------------------------------------|

Guitar 2 - Verse 1 - 0 Tone(hard to hear) comes in late
|-0~---7~---4~-|x4
|-5~---5~---5~-|
|-6~---6~---6~-|
|--------------|
|--------------|
|--------------|

Guitar 3 - Verse 1 - May be a keyboard
|-4-----------------4-----------|
|----5-----------------5--------|
|-------6---4---4---------6--6~-|
|-------------------------------|
|-------------------------------|
|-------------------------------|

Guitar 1 - Chorus
|-----------------------------------------------|
|-----------------------------------------------|
|-----------------------------------------------|
|-11-11-11-7-7-7---(b9)(b9)(b9)(b9)(b9)(b9)(b9)(b9)(b9)(b9)(b9)(b9)11-|
|-11-11-11-7-7-7---(b9)(b9)(b9)(b9)(b9)(b9)(b9)(b9)(b9)(b9)(b9)(b9)----|
|-11-11-11-7-7-7---(b9)(b9)(b9)(b9)(b9)(b9)(b9)(b9)(b9)(b9)(b9)(b9)----|

|------------------------------------------------|
|------------------------------------------------|
|------------------------------------------------|
|-11-11-11-7-7-7---(b9)(b9)(b9)(b9)(b9)(b9)(b9)(b9)(b9)(b9)(b9)(b9)(b9)(b9)-|
|-11-11-11-7-7-7---(b9)(b9)(b9)(b9)(b9)(b9)(b9)(b9)(b9)(b9)(b9)(b9)(b9)(b9)-|
|-11-11-11-7-7-7---(b9)(b9)(b9)(b9)(b9)(b9)(b9)(b9)(b9)(b9)(b9)(b9)(b9)9-|

Guitar 2 - Chorus
|-------------------------------------------------|x2
|-------------------------------------------------|
|-------------------------------------------------|
|-11-11-11-7-7-7-(b9)(b9)(b9)(b9)(b9)(b9)(b9)(b9)(b9)(b9)(b9)(b9)(b9)(b9)(b9)(b9)|
|-11-11-11-7-7-7-(b9)(b9)(b9)(b9)(b9)(b9)(b9)(b9)(b9)(b9)(b9)(b9)(b9)(b9)(b9)(b9)|
|-11-11-11-7-7-7-(b9)(b9)(b9)(b9)(b9)(b9)(b9)(b9)(b9)(b9)(b9)(b9)(b9)(b9)(b9)(b9)|

Guitar 1 - Verse 2
|-----0-------0-------0-------0-------0-------0-------0-------0---|x4
|---5---5---5---5---0---0---0---0---4---4---4---4---4---4---4---4-|
|-6-------6-------2-------2-------4-------4-------4-------4-------|
|-----------------------------------------------------------------|
|-----------------------------------------------------------------|
|-----------------------------------------------------------------|

Guitar 2 - Verse 2
|-0-0-0-0-0-0-0-0-0-0-0-0-0-0-0-0-0-0-0-0-0-0-0-0-0-0-0-0-0-0-0-0-|x6
|-5-5-5-5-5-5-5-5-0-0-0-0-0-0-0-0-5-5-5-5-5-5-5-5-4-4-4-4-4-4-4-4-|
|-6-6-6-6-6-6-6-6-2-2-2-2-2-2-2-2-4-4-4-4-4-4-4-4-4-4-4-4-4-4-4-4-|
|-----------------------------------------------------------------|
|-----------------------------------------------------------------|
|-----------------------------------------------------------------|

|----------------|
|----------------|
|----------------|
|-0-4-6-7-4-6-0--|
|----------------|
|----------------|

Guitar 3 - Verse 2 - Violins
|-4-7-5-4-0~-|
|------------|
|------------|
|------------|
|------------|
|------------|

Guitar 1 - Chorus 2
|-0-0-0-0-0-0-0-0-0-0-0-0-0-0-0-0--------------------------------|x4
|-5-5-5-5-5-5-5-5-5-5-5-5-5-5-5-5--------------------------------|
|-6-6-6-6-6-6-6-6-6-6-6-6-6-6-6-6--------------------------------|
|-6-6-6-----------7-7-7-----------(b9)(b9)(b9)(b9)(b9)(b9)(b9)(b9)(b9)(b9)(b9)(b9)(b9)(b9)9-|
|-4-4-4-----------7-7-7-----------(b9)(b9)(b9)(b9)(b9)(b9)(b9)(b9)(b9)(b9)(b9)(b9)(b9)(b9)9-|
|-----------------7-7-7-----------(b9)(b9)(b9)(b9)(b9)(b9)(b9)(b9)(b9)(b9)(b9)(b9)(b9)(b9)9-|

Guitar 2 - Chorus 2
|-------------------------------------------------|x4
|-------------------------------------------------|
|-------------------------------------------------|
|-11-11-11-7-7-7-(b9)(b9)(b9)(b9)(b9)(b9)(b9)(b9)(b9)(b9)(b9)(b9)(b9)(b9)(b9)(b9)|
|-11-11-11-7-7-7-(b9)(b9)(b9)(b9)(b9)(b9)(b9)(b9)(b9)(b9)(b9)(b9)(b9)(b9)(b9)(b9)|
|-11-11-11-7-7-7-(b9)(b9)(b9)(b9)(b9)(b9)(b9)(b9)(b9)(b9)(b9)(b9)(b9)(b9)(b9)(b9)|

Guitar 1 - Interlude v-twenties
|----------------/19b20202020----14----14b16b14----14----14b16b14-|
|-----------------------------12----12----------12----12----------|
|-----------------------------------------------------------------|
|---------/13~----------------------------------------------------|
|-2~--4~--/11~----------------------------------------------------|
|-2~--4~--/11~----------------------------------------------------|

|----16----16b18b16----16----16b18b16----18----18b19b18----18----18b19b18-|
|-14----14----------14----14----------16----16----------16----16----------|
|-------------------------------------------------------------------------|
|-------------------------------------------------------------------------|
|-------------------------------------------------------------------------|
|-------------------------------------------------------------------------|

|----18----18b19b18-18-19191919181919191918-|
|-16----16----------------------------------|
|-------------------------------------------|
|-------------------------------------------|
|-------------------------------------------|
|-------------------------------------------|

|----14----14b16b14----14----14b16b14----16----16b18b16----16----16b18b16-|
|-12----12----------12----12----------14----14----------14----14----------|
|-------------------------------------------------------------------------|
|-------------------------------------------------------------------------|
|-------------------------------------------------------------------------|
|-------------------------------------------------------------------------|

|----18----18b19b18----18----18b19b18----18----18b19b18-x-x-x-18btc-|
|-16----16----------16----16----------16----16----------------------|
|-------------------------------------------------------------------|
|-------------------------------------------------------------------|
|-------------------------------------------------------------------|
|-------------------------------------------------------------------|

Guitar 2 - Interlude
|-WP------------------NP-|
|-WP------------------NP-|
|-WP--------------11~-NP-|
|-WP---------13~------NP-|
|-WP-2~--4~--11~------NP-|
|-WP-2~--4~--11~------NP-|

|--------------------------------------------------------|x2
|--------------------------------------------------------|
|--------------------------------------------------------|
|-2--2--2--2--4--4--4--4--13--13--13--13--13--13--13--13-|
|-2--2--2--2--4--4--4--4--11--11--11--11--11--11--11--11-|
|-2--2--2--2--4--4--4--4--11--11--11--11--11--11--11--11-|


Guitar 1 - Breakdown
|-----0-------0-------0-------0-------0-------0-------0-------0---|x2
|---5---5---5---5---0---0---0---0---5---5---5---5---4---4---4---4-|
|-6-------6-------2-------2-------4-------4-------4-------4-------|
|-----------------------------------------------------------------|
|-----------------------------------------------------------------|
|-----------------------------------------------------------------|

Guitar 2 - Breakdown - 0 Tone
|-0~--7~--4~-|x2
|-5~--5~--5~-|
|-6~--6~--6~-|
|------------|
|------------|
|------------|

Guitar 1 - Chorus 2
|-0-0-0-0-0-0-0-0-0-0-0-0-0-0-0-0--------------------------------|x4
|-5-5-5-5-5-5-5-5-5-5-5-5-5-5-5-5--------------------------------|
|-6-6-6-6-6-6-6-6-6-6-6-6-6-6-6-6--------------------------------|
|-6-6-6-----------7-7-7-----------(b9)(b9)(b9)(b9)(b9)(b9)(b9)(b9)(b9)(b9)(b9)(b9)(b9)(b9)9-|
|-4-4-4-----------7-7-7-----------(b9)(b9)(b9)(b9)(b9)(b9)(b9)(b9)(b9)(b9)(b9)(b9)(b9)(b9)9-|
|-----------------7-7-7-----------(b9)(b9)(b9)(b9)(b9)(b9)(b9)(b9)(b9)(b9)(b9)(b9)(b9)(b9)9-|

Guitar 2 - Chorus 2
|-------------------------------------------------|x4
|-------------------------------------------------|
|-------------------------------------------------|
|-11-11-11-7-7-7-(b9)(b9)(b9)(b9)(b9)(b9)(b9)(b9)(b9)(b9)(b9)(b9)(b9)(b9)(b9)(b9)|
|-11-11-11-7-7-7-(b9)(b9)(b9)(b9)(b9)(b9)(b9)(b9)(b9)(b9)(b9)(b9)(b9)(b9)(b9)(b9)|
|-11-11-11-7-7-7-(b9)(b9)(b9)(b9)(b9)(b9)(b9)(b9)(b9)(b9)(b9)(b9)(b9)(b9)(b9)(b9)|

Both Guitars - Outro
|-0---0---0~-|
|-5---5---5~-|
|-6---6---6~-|
|-7---7---7~-|
|-7---7---7~-|
|-7---7---7~-|		   
AcordesyTabs.com © 2008 Acordes y Tablaturas para guitarra. Tabs and Chords for guitar. Aviso Legal - Contacto
El uso de este sitio está sujeto a la aceptación de los términos y condiciones (26 usuarios online)