tablaturas, partituras y acordes para guitarra
Busca por banda/artista:
 
y/o título de la canción:
A B C D E F G H I J K L M N O P Q R S T U V W X Y Z 0 1 2 3 4 5 6 7 8 9 / Top 100 tabs
Categorías
Usuarios
usuario:
Darse de alta
password:
Artistas más visitados
Publicidad
TOP acordes y tablaturas de Fall out boy


Estás en: Inicio > Letra F > Acordes y tablaturas de Fall out boy > Where is your boy tonight?
Where is your boy tonight?
de Fall out boy
Puntúa este acorde/tab:      
(0.5/5)
Reportar este acorde/tab
  Añadir a tus favoritos
  Imprimir
Vocal Intro

Guitar 1
e|---------------------------------------------------------------------------|
B|---------------------------------------------------------------------------|
G|-6/7-7-7-6/7-7-7-6/7-7-7-6/7-7-7-------------------------------------------|
D|-x-x-x-x-x-x-x-x-x-x-x-x-x-x-x-x----repeat til lyrics start----------------|
A|-4/5-5-5-4/5-5-5-4/5-5-5-4/5-5-5-------------------------------------------|
D|---------------------------------------------------------------------------|

Guitar 2(Come in after 2 times of above Guitar 1 riff)
e|---------------------------------------------------------------------------|
B|---------------------------------------------------------------------------|
G|-7-7-7-7-7-7-7-7-7-7-7-7-7-7-7-7--4-4-4-4-4-4-4-4-4--2-2-2-2-2-2-2-2-------|
D|-7-7-7-7-7-7-7-7-7-7-7-7-7-7-7-7--4-4-4-4-4-4-4-4-4--2-2-2-2-2-2-2-2-------|
A|-5-5-5-5-5-5-5-5-5-5-5-5-5-5-5-5--2-2-2-2-2-2-2-2-2--0-0-0-0-0-0-0-0-------|
D|---------------------------------------------------------------------------|


"When I wake up..."
Guitar 1
e|---------------------------------------------------------------------------|
B|---------------------------------------------------------------------------|
G|-7-7--7-7-7---7-7--7-7-7---7-7--7-7-7---7-7--7-7-7-------------------------|
D|-7-7--7-7-7---7-7--7-7-7---7-7--7-7-7---7-7--7-7-7-------------------------|
A|-5-5--5-5-5---5-5--5-5-5---5-5--5-5-5---5-5--5-5-5-------------------------|
D|---------------------------------------------------------------------------|

Guitar 2
e|---------------------------------------------------------------------------|
B|---------------------------------------------------------------------------|
G|-7-7-----------------------------------------------------------------------|
D|-7-7--------4-5-5--------4-2-2--------4-5-5--4-5-5--7----------------------|
A|-5-5--------4-5-5--------4-2-2--------4-5-5--4-5-5--7----------------------|
D|------------4-5-5--------4-2-2--------4-5-5--4-5-5--7----------------------|

"You need him..."
Both Guitars
e|---------------------------------------------------------------------------|
B|---------------------------------------------------------------------------|
G|-7-7-7-7--(b9)(b9)(b9)(b9)---------------------------------------------------------|
D|-7-7-7-7--(b9)(b9)(b9)(b9)-0-0-0-0--5-5-5-5---5-5--5-5--7-7--7-7---0-0--0-0--------|
A|-5-5-5-5--7-7-7-7--0-0-0-0--5-5-5-5---5-5--5-5--7-7--7-7---0-0--0-0--------|
D|-------------------0-0-0-0--5-5-5-5---5-5--5-5--7-7--7-7---0-0--0-0--------|

Guitar 1 plays first riff

"Where is your boy tonight..."
Both Guitars
e|---------------------------------------------------------------------------|
B|---------------------------------------------------------------------------|
G|-7-7-----------------------------------------------------------------------|
D|-7-7--5-5--0-0--4-4--5-5--7-7--0-0--4-4--5-5--7-7--0-0-0-0--2-2-2-2--4/5---|
A|-5-5--5-5--0-0--4-4--5-5--7-7--0-0--4-4--5-5--7-7--0-0-0-0--2-2-2-2--4/5---|
D|------5-5--0-0--4-4--5-5--7-7--0-0--4-4--5-5--7-7--0-0-0-0--2-2-2-2--4/5---|

Play intro riff

Guitar 1
e|---------------------------------------------------------------------------|
B|---------------------------------------------------------------------------|
G|---------------------------------------------------------------------------|
D|-0-0-0-(b9)(b9)0-(b9)0-0-(b9)(b9)0-(b9)00-0-0-(b9)(b9)0-(b9)0-0-(b9)(b9)0-(b9)---------------------|
A|---------------------------------------------------------------------------|
D|---------------------------------------------------------------------------|

Guitar 2
e|---------------------------------------------------------------------------|
B|-7-3-5-3-7-3-5-3-7-3-5-3-7-3-5-3-------------------------------------------|
G|---------------------------------------------------------------------------|
D|---------------------------------------------------------------------------|
A|---------------------------------------------------------------------------|
D|---------------------------------------------------------------------------|

Bridge
Guitar 1(Guitar 2 continues to play above riff)
e|---------------------------------------------------------------------------|
B|---------------------------------------------------------------------------|
G|-4-4-4-4--2-2-2-2----------------------------------------------------------|
D|-4-4-4-4--2-2-2-2--0-0-0-0--5-5-5-5----------------------------------------|
A|-2-2-2-2--0-0-0-0--0-0-0-0--5-5-5-5----------------------------------------|
D|-------------------0-0-0-0--5-5-5-5----------------------------------------|

Guitar 1
"Where is your boy..."
e|---------------------------------------------------------------------------|
B|---------------------------------------------------------------------------|
G|-7-7----------------------------------7-7-7-7--(b9)(b9)(b9)(b9)--------------------|
D|-7-7--5-5--0-0--4-4--5-5--7-7--Pause--7-7-7-7--(b9)(b9)(b9)(b9)-0-0-0-0--5-5-5-5---|
A|-5-5--5-5--0-0--4-4--5-5--7-7---------5-5-5-5--7-7-7-7--0-0-0-0--5-5-5-5---|
D|------5-5--0-0--4-4--5-5--7-7---------------------------0-0-0-0--5-5-5-5---|

e|---------------------------------------------------------------------------|
B|---------------------------------------------------------------------------|
G|---------------------------------------------------------------------------|
D|-0-0-0-0-0-0-0-0--5-5-5-5-5-5-5-5------------------------------------------|
A|-0-0-0-0-0-0-0-0--5-5-5-5-5-5-5-5------------------------------------------|
D|-0-0-0-0-0-0-0-0--5-5-5-5-5-5-5-5------------------------------------------|

Both Guitars
"Where is your boy..."
e|---------------------------------------------------------------------------|
B|---------------------------------------------------------------------------|
G|-7-7x----------------------------------------------------------------------|
D|-7-7x--5-5x--0-0x--4-4x--5-5x--7-7x--0-0x--4-4x--5-5x--7-7x----------------|
A|-5-5x--5-5x--0-0x--4-4x--5-5x--7-7x--0-0x--4-4x--5-5x--7-7x----------------|
D|-------5-5x--0-0x--4-4x--5-5x--7-7x--0-0x--4-4x--5-5x--7-7x----------------|

e|--------------------------|
B|--------------------------|
G|------------------------7-|
D|-0-0-0-0--2-2-2-2--4/5--7-|
A|-0-0-0-0--2-2-2-2--4/5--5-|
D|-0-0-0-0--2-2-2-2--4/5----|		   
AcordesyTabs.com © 2008 Acordes y Tablaturas para guitarra. Tabs and Chords for guitar. Aviso Legal - Contacto
El uso de este sitio está sujeto a la aceptación de los términos y condiciones (20 usuarios online)