tablaturas, partituras y acordes para guitarra
Busca por banda/artista:
 
y/o título de la canción:
A B C D E F G H I J K L M N O P Q R S T U V W X Y Z 0 1 2 3 4 5 6 7 8 9 / Top 100 tabs
Categorías
Usuarios
usuario:
Darse de alta
password:
Artistas más visitados
Publicidad
TOP acordes y tablaturas de Fall out boy


What's this
de Fall out boy
Puntúa este acorde/tab:      
(0.3/5)
Reportar este acorde/tab
  Añadir a tus favoritos
  Imprimir
E|---------------6------------------------------------------------------|
B|6---6--------6-----6-------8--------10--------------------------------|
G|--7---7----------------7-------(b9)------10-8---------------------------|
D|----------8---------------------------------10------------------------|
A|----------------------------------------------------------------------|
E|----------------------------------------------------------------------|


[electric guitar part of intro]
E|------------------------------------------------------------------------|
B|---------------8-10-11-10------------------8-10--------------8-10-11-10-|
G|-7-10-7-10-7-10------------6-(b9)-6-(b9)-6-(b9)10----10---7-10-7-10-----------|
D|------------------------------------------------------------------------|
A|------------------------------------------------------------------------|
E|------------------------------------------------------------------------|

[cont.]
E|------------------10--------------------------------------------------|
B|---10--10--8----------------------------------------------------------|
G|-10--10--10--(b9)7------------------------------------------------------|
D|----------------------------------------------------------------------|
A|----------------------------------------------------------------------|
E|----------------------------------------------------------------------|		   
AcordesyTabs.com © 2008 Acordes y Tablaturas para guitarra. Tabs and Chords for guitar. Aviso Legal - Contacto
El uso de este sitio está sujeto a la aceptación de los términos y condiciones (25 usuarios online)