tablaturas, partituras y acordes para guitarra
Busca por banda/artista:
 
y/o título de la canción:
A B C D E F G H I J K L M N O P Q R S T U V W X Y Z 0 1 2 3 4 5 6 7 8 9 / Top 100 tabs
Categorías
Usuarios
usuario:
Darse de alta
password:
Artistas más visitados
Publicidad
TOP acordes y tablaturas de Kaiser chiefs


Estás en: Inicio > Letra K > Acordes y tablaturas de Kaiser chiefs > Heat dies down
Heat dies down
de Kaiser chiefs
Puntúa este acorde/tab:      
(0.9/5)
Reportar este acorde/tab
  Añadir a tus favoritos
  Imprimir
Intro:
e|-----33-44-66-44-33--------|
B|--66----------------66-44--|
G|---------------------------|
D|---------------------------|
A|---------------------------|
E|---------------------------|

Verse: (On each cord you have to strum three really fast time's and then let the fourth ring
until the next chord. Listen to the song, and you'll know what i mean.)

"I can ... you and me... out of steam... the moooooootions."
e|-------------------------------------------------------------|
B|-------------------------------------------------------------|
G|-10----------------------------------------------------------|
D|-10--------------10-------------11-----------8--------10-----| X 2
A|-8---------------10-------------11-----------8--------10-----|
E|-----------------8--------------(b9)-----------6--------8------|

The third time just strum once. except the last chord. It goes:

e|-------------------------------------------|
B|-------------------------------------------|
G|-10----------------------------------------|
D|-10---10----11----8----10--10-10-10--------|
A|-8----10----11----8----10--10-10-10--------|
E|------8-----(b9)----6----8---8--8--8---------|

After that you play the same chords, only faster. 8 strums per chord.

Right before the (amazing) chorus at the "So we started..." part keep going on:

e|--------------------|
B|--------------------|
G|--10--10--10--10----|
D|--10--10--10--10----|
A|--8---8---8---8-----|
E|--------------------|		   
AcordesyTabs.com © 2008 Acordes y Tablaturas para guitarra. Tabs and Chords for guitar. Aviso Legal - Contacto
El uso de este sitio está sujeto a la aceptación de los términos y condiciones (16 usuarios online)