tablaturas, partituras y acordes para guitarra
Busca por banda/artista:
 
y/o título de la canción:
A B C D E F G H I J K L M N O P Q R S T U V W X Y Z 0 1 2 3 4 5 6 7 8 9 / Top 100 tabs
Categorías
Usuarios
usuario:
Darse de alta
password:
Artistas más visitados
Publicidad
TOP acordes y tablaturas de The vines


Mary jane
de The vines
Puntúa este acorde/tab:      
(0.7/5)
Reportar este acorde/tab
  Añadir a tus favoritos
  Imprimir
E----------------------------------- 
B----------------------------------- 
G----------------------------------- 
D--------7-2-4---4-4-4-2-4-2-------- 
A--5-5-5---------------------5------ 
E----------------------------------- 
 
E----------------------------------- 
B----------------------------------- 
G----------------------------------- 
D--------7-2-4---4-4-4-2-4-2-------- 
A--5-5-5---------------------5------ 
E----------------------------------- 
 
E----------------------------------- 
B----------------------------------- 
G----------------------------------- 
D--------7-2-4---4-4-4-2-4-2--------this part isnt exactly the same as the rest. 
A--5-5-5---------------------5------if you listen closely you can probably figure 
E-----------------------------------it out. 
 
E----------------------------------- 
B----------------------------------- 
G----------------------------------- 
D--------7-2-4---4-4-4-2-4-2-------- 
A--5-5-5---------------------5------ 
E-----------------------------------   Repeat all		   
AcordesyTabs.com © 2008 Acordes y Tablaturas para guitarra. Tabs and Chords for guitar. Aviso Legal - Contacto
El uso de este sitio está sujeto a la aceptación de los términos y condiciones (15 usuarios online)