tablaturas, partituras y acordes para guitarra
Busca por banda/artista:
 
y/o título de la canción:
A B C D E F G H I J K L M N O P Q R S T U V W X Y Z 0 1 2 3 4 5 6 7 8 9 / Top 100 tabs
Categorías
Usuarios
usuario:
Darse de alta
password:
Artistas más visitados
Publicidad
TOP acordes y tablaturas de Megadeth


Estás en: Inicio > Letra M > Acordes y tablaturas de Megadeth > American onanist
American onanist
de Megadeth
Puntúa este acorde/tab:      
(0.3/5)
Reportar este acorde/tab
  Añadir a tus favoritos
  Imprimir
Guitarra I
                                                         
E||--------------------------|--------------------------|
B||--------------------------|--------------------------|
G||--------------------------|--7-----------------------|
D||--7-----------------------|--7-----------------------|
A||--7-----------------------|--5--5--5--5--7--5--------|
E||--5--5--5--5--8--0--7--0--|--------------------7--5--|


                                                      3x                       
---------------------------|--------------------------||----------------------|
---------------------------|--------------------------||----------------------|
--(b9)-----------------------|--7-----------------7----*||----------------------|
--(b9)-----------------------|--7-----------------7----*||----------------------|
--7--7--7--7--7h-(b9)-10--(b9)-|--5--5--5--5--5--5--5-----||------------3----5----|
---------------------------|--------------------------||--3----5--------------|


                                                                     
----------------------|----------------------|----------------------|
----------------------|----------------------|----------------------|
----------------------|----------------------|----------------------|
----------------------|------------5----7~---|-------5----3---------|
-------4----6----2----|--5----5--------------|--5----3----5----4----|
--0----2----3---------|----------------------|--3--------------2----|


                                                                     
----------------------|----------------------|----------------------|
----------------------|----------------------|----------------------|
----------------------|----------------------|----------------------|
-------5----3---------|-------5----3---------|-------5----3---------|
--5----3----5----2----|--5----3----5----4----|--5----3----5----0----|
--3--------------0----|--3--------------2----|--3--------------2----|


                     
-------------------||
-------------------||
-------------------||
--7----------------||
--7----------------||
--5----------------||		   
AcordesyTabs.com © 2008 Acordes y Tablaturas para guitarra. Tabs and Chords for guitar. Aviso Legal - Contacto
El uso de este sitio está sujeto a la aceptación de los términos y condiciones (25 usuarios online)