tablaturas, partituras y acordes para guitarra
Busca por banda/artista:
 
y/o título de la canción:
A B C D E F G H I J K L M N O P Q R S T U V W X Y Z 0 1 2 3 4 5 6 7 8 9 / Top 100 tabs
Categorías
Usuarios
usuario:
Darse de alta
password:
Artistas más visitados
Publicidad
TOP acordes y tablaturas de Megadeth


Estás en: Inicio > Letra M > Acordes y tablaturas de Megadeth > Black friday
Black friday
de Megadeth
Puntúa este acorde/tab:      
(0.2/5)
Reportar este acorde/tab
  Añadir a tus favoritos
  Imprimir
Guitarra I
                                                                             
E||----------------------------------|--------------------------------------|
B||----------------------------------|--------------------------------------|
G||----------------------------------|--------------------------------------|
D||----------------------------------|--------------------------------------|
A||-----------3p-2--------------5----|-----------3p-2-----5p-4-----2h-4-----|
E||--2--2--2--------2--2--2--2--3----|--2--2--2--------2--------5--------2--|


                                                                          
----------------------------------|--------------------------------------|
----------------------------------|--------------------------------------|
----------------------------------|--------------------------------------|
----------------------------------|--------------------------------------|
-----------3p-2--------------5----|--5p-4-----4p-2-----2p-0-----1p-0-----|
--2--2--2--------2--2--2--2--3----|--------5--------3--------2--------0--|


                                                                          
----------------------------------|--------------------------------------|
----------------------------------|--------------------------------------|
----------------------------------|--------------------------------------|
----------------------------------|--------------------------------------|
-----------3p-2--------------5----|-----------3p-2-----5p-4-----2h-4-----|
--2--2--2--------2--2--2--2--3----|--2--2--2--------2--------5--------2--|


                                                                          
----------------------------------|--------------------------------------|
----------------------------------|--------------------------------------|
----------------------------------|--------------------------------------|
----------------------------------|--------------------------------------|
-----------3p-2--------------5----|--5p-4-----4p-2-----2p-0-----1p-0-----|
--2--2--2--------2--2--2--2--3----|--------5--------3--------2--------0--|


                                                                          
----------------------------------|--------------------------------------|
----------------------------------|--------------------------------------|
----------------------------------|--------------------------------------|
----------------------------------|--------------------------------------|
-----------3p-2--------------5----|-----------3p-2-----5p-4-----2h-4-----|
--2--2--2--------2--2--2--2--3----|--2--2--2--------2--------5--------2--|


                                                                          
----------------------------------|--------------------------------------|
----------------------------------|--------------------------------------|
----------------------------------|--------------------------------------|
----------------------------------|--------------------------------------|
-----------3p-2--------------5----|--5p-4-----4p-2-----2p-0-----1p-0-----|
--2--2--2--------2--2--2--2--3----|--------5--------3--------2--------0--|


                                                                          
----------------------------------|--------------------------------------|
----------------------------------|--------------------------------------|
----------------------------------|--------------------------------------|
----------------------------------|--------------------------------------|
-----------3p-2--------------5----|-----------3p-2-----5p-4-----2h-4-----|
--2--2--2--------2--2--2--2--3----|--2--2--2--------2--------5--------2--|


                                                                          
----------------------------------|--------------------------------------|
----------------------------------|--------------------------------------|
----------------------------------|--------------------------------------|
----------------------------------|--------------------------------------|
-----------3p-2--------------5----|--5p-4-----4p-2-----2p-0-----1p-0-----|
--2--2--2--------2--2--2--2--3----|--------5--------3--------2--------0--|


                                                                      
----------------------------------|----------------------------------|
----------------------------------|----------------------------------|
----------------------------------|----------------------------------|
----------------------------------|----------------------------------|
-----------4p-3--------------6----|-----------4p-3--------------6----|
--3--3--3--------3--3--3--3--4----|--3--3--3--------3--3--3--3--4----|


                                                             
-----------------------------|------------------------------|
-----------------------------|------------------------------|
-----------------------------|------------------------------|
--x--x-----------x--x----5---|--6--x--x-----------x--x--5/--|
--x--x----7---(b9)-x--x----3---|--4--x--x----7---(b9)-x--x--3/--|
--x--x----5---7--x--x--------|-----x--x----5---7--x--x------|


                                                                      
----------------------------------|----------------------------------|
----------------------------------|----------------------------------|
----------------------------------|----------------------------------|
----------------------------------|----------------------------------|
-----------4p-3--------------6----|-----------4p-3--------------6----|
--3--3--3--------3--3--3--3--4----|--3--3--3--------3--3--3--3--4----|


                                                              
-----------------------------|-------------------------------|
-----------------------------|-------------------------------|
-----------------------------|-------------------------------|
--x--x-----------x--x----5---|--6--x--x----(b9)--11--x--x--6/--|
--x--x----7---(b9)-x--x----3---|--4--x--x----7---(b9)--x--x--4/--|
--x--x----5---7--x--x--------|-----x--x------------x--x------|


                                                                          
----------------------------------|--------------------------------------|
----------------------------------|--------------------------------------|
----------------------------------|--------------------------------------|
----------------------------------|--------------------------------------|
-----------3p-2--------------5----|-----------3p-2-----5p-4-----2h-4-----|
--2--2--2--------2--2--2--2--3----|--2--2--2--------2--------5--------2--|


                                                                          
----------------------------------|--------------------------------------|
----------------------------------|--------------------------------------|
----------------------------------|--------------------------------------|
----------------------------------|--------------------------------------|
-----------3p-2--------------5----|--5p-4-----4p-2-----2p-0-----1p-0-----|
--2--2--2--------2--2--2--2--3----|--------5--------3--------2--------0--|


                                                                          
----------------------------------|--------------------------------------|
----------------------------------|--------------------------------------|
----------------------------------|--------------------------------------|
----------------------------------|--------------------------------------|
-----------3p-2--------------5----|-----------3p-2-----5p-4-----2h-4-----|
--2--2--2--------2--2--2--2--3----|--2--2--2--------2--------5--------2--|


                                                                          
----------------------------------|--------------------------------------|
----------------------------------|--------------------------------------|
----------------------------------|--------------------------------------|
----------------------------------|--------------------------------------|
-----------3p-2--------------5----|--5p-4-----4p-2-----2p-0-----1p-0-----|
--2--2--2--------2--2--2--2--3----|--------5--------3--------2--------0--|


                                                                      
----------------------------------|----------------------------------|
----------------------------------|----------------------------------|
----------------------------------|----------------------------------|
----------------------------------|----------------------------------|
-----------4p-3--------------6----|-----------4p-3--------------6----|
--3--3--3--------3--3--3--3--4----|--3--3--3--------3--3--3--3--4----|


                                                             
-----------------------------|------------------------------|
-----------------------------|------------------------------|
-----------------------------|------------------------------|
--x--x-----------x--x----5---|--6--x--x-----------x--x--5/--|
--x--x----7---(b9)-x--x----3---|--4--x--x----7---(b9)-x--x--3/--|
--x--x----5---7--x--x--------|-----x--x----5---7--x--x------|


                                                                      
----------------------------------|----------------------------------|
----------------------------------|----------------------------------|
----------------------------------|----------------------------------|
----------------------------------|----------------------------------|
-----------4p-3--------------6----|-----------4p-3--------------6----|
--3--3--3--------3--3--3--3--4----|--3--3--3--------3--3--3--3--4----|


                                                              
-----------------------------|-------------------------------|
-----------------------------|-------------------------------|
-----------------------------|-------------------------------|
--x--x-----------x--x----5---|--6--x--x----(b9)--11--x--x--6/--|
--x--x----7---(b9)-x--x----3---|--4--x--x----7---(b9)--x--x--4/--|
--x--x----5---7--x--x--------|-----x--x------------x--x------|


                                                                          
----------------------------------|--------------------------------------|
----------------------------------|--------------------------------------|
----------------------------------|--------------------------------------|
----------------------------------|--------------------------------------|
-----------3p-2--------------5----|-----------3p-2-----5p-4-----2h-4-----|
--2--2--2--------2--2--2--2--3----|--2--2--2--------2--------5--------2--|


                                                                          
----------------------------------|--------------------------------------|
----------------------------------|--------------------------------------|
----------------------------------|--------------------------------------|
----------------------------------|--------------------------------------|
-----------3p-2--------------5----|--5p-4-----4p-2-----2p-0-----1p-0-----|
--2--2--2--------2--2--2--2--3----|--------5--------3--------2--------0--|


                                                                                
--------------------------------------|-------------------|--------------------|
--------------------------------------|-------------------|--------------------|
--------------------------------------|-------------------|--------------------|
--------------------------------------|-------------------|--11----------------|
--7p-5-----5p-4-----4p-2-----2p-0-----|--4----------------|--(b9)----------------|
--------5--------5--------3--------0--|--2----------------|--------------------|


                                                                  
--------------------------------|--------------------------------|
--------------------------------|--------------------------------|
--------------------------------|--------------------------------|
--------------------------------|--------------------------------|
-------2h3p2--------2h3p2h3p2---|-------2h3p2--------2h3p2h3p2---|
--2--2-------5-2--2-----------5-|--2--2-------5-2--2-----------5-|


                                                                  
--------------------------------|--------------------------------|
--------------------------------|--------------------------------|
--------------------------------|--------------------------------|
--------------------------------|--------------------------------|
-------2h3p2--------2h3p2h3p2---|-------2h3p2--------2h3p2h3p2---|
--2--2-------5-2--2-----------5-|--2--2-------5-2--2-----------5-|


                                                                  
--------------------------------|--------------------------------|
--------------------------------|--------------------------------|
--------------------------------|--------------------------------|
--------------------------------|--------------------------------|
-------2h3p2--------2h3p2h3p2---|-------2h3p2--------2h3p2h3p2---|
--2--2-------5-2--2-----------5-|--2--2-------5-2--2-----------5-|


                                                                  
--------------------------------|--------------------------------|
--------------------------------|--------------------------------|
--------------------------------|--------------------------------|
--------------------------------|--------------------------------|
-------2h3p2--------2h3p2h3p2---|-------2h3p2--------2h3p2h3p2---|
--2--2-------5-2--2-----------5-|--2--2-------5-2--2-----------5-|


                                                                  
--------------------------------|--------------------------------|
--------------------------------|--------------------------------|
--------------------------------|--------------------------------|
--------------------------------|--------------------------------|
-------2h3p2--------2h3p2h3p2---|-------2h3p2--------2h3p2h3p2---|
--2--2-------5-2--2-----------5-|--2--2-------5-2--2-----------5-|


                                                                  
--------------------------------|--------------------------------|
--------------------------------|--------------------------------|
--------------------------------|--------------------------------|
--------------------------------|--------------------------------|
-------2h3p2--------2h3p2h3p2---|-------2h3p2--------2h3p2h3p2---|
--2--2-------5-2--2-----------5-|--2--2-------5-2--2-----------5-|


                                                                  
--------------------------------|--------------------------------|
--------------------------------|--------------------------------|
--------------------------------|--------------------------------|
--------------------------------|--------------------------------|
-------2h3p2--------2h3p2h3p2---|-------2h3p2--------2h3p2h3p2---|
--2--2-------5-2--2-----------5-|--2--2-------5-2--2-----------5-|


                                                                  
--------------------------------|--------------------------------|
--------------------------------|--------------------------------|
--------------------------------|--------------------------------|
--------------------------------|--------------------------------|
-------2h3p2--------2h3p2h3p2---|-------2h3p2--------2h3p2h3p2---|
--2--2-------5-2--2-----------5-|--2--2-------5-2--2-----------5-|


                                                                  
--------------------------------|--------------------------------|
--------------------------------|--------------------------------|
--------------------------------|--------------------------------|
--------------------------------|--------------------------------|
-------2h3p2--------2h3p2h3p2---|-------2h3p2--------2h3p2h3p2---|
--2--2-------5-2--2-----------5-|--2--2-------5-2--2-----------5-|


                                                                  
--------------------------------|--------------------------------|
--------------------------------|--------------------------------|
--------------------------------|--------------------------------|
--------------------------------|--------------------------------|
-------2h3p2--------2h3p2h3p2---|-------2h3p2--------2h3p2h3p2---|
--2--2-------5-2--2-----------5-|--2--2-------5-2--2-----------5-|


                                                                  
--------------------------------|--------------------------------|
--------------------------------|--------------------------------|
--------------------------------|--------------------------------|
--------------------------------|--------------------------------|
-------2h3p2--------2h3p2h3p2---|-------2h3p2--------2h3p2h3p2---|
--2--2-------5-2--2-----------5-|--2--2-------5-2--2-----------5-|


                                                                  
--------------------------------|--------------------------------|
--------------------------------|--------------------------------|
--------------------------------|--------------------------------|
--------------------------------|--------------------------------|
-------2h3p2--------2h3p2h3p2---|-------2h3p2--------2h3p2h3p2---|
--2--2-------5-2--2-----------5-|--2--2-------5-2--2-----------5-|


                                                            
----------------------------------|------------------------|
----------------------------------|------------------------|
----------------------------------|------------------------|
----------------------------------|--3---2---5---4---2-----|
----------------------------------|--1---0---3---2---0--2--|
--3-3-3-3-3-3-3-3-3-3-3-3-3-3-3-3-|---------------------0--|


                                                                  
--------------------------------|--------------------------------|
--------------------------------|--------------------------------|
--------------------------------|--------------------------------|
--------------------------------|--------------------------------|
-------2h3p2--------2h3p2h3p2---|-------2h3p2--------2h3p2h3p2---|
--2--2-------5-2--2-----------5-|--2--2-------5-2--2-----------5-|


                                                            
----------------------------------|------------------------|
----------------------------------|------------------------|
----------------------------------|------------------------|
----------------------------------|--3---2---5---4---2-----|
----------------------------------|--1---0---3---2---0--2--|
--3-3-3-3-3-3-3-3-3-3-3-3-3-3-3-3-|---------------------0--|


                                                                  
--------------------------------|--------------------------------|
--------------------------------|--------------------------------|
--------------------------------|--------------------------------|
--------------------------------|--------------------------------|
-------2h3p2--------2h3p2h3p2---|-------2h3p2--------2h3p2h3p2---|
--2--2-------5-2--2-----------5-|--2--2-------5-2--2-----------5-|


                                                                      
----------------------------------|----------------------------------|
----------------------------------|----------------------------------|
----------------------------------|----------------------------------|
----------------------------------|----------------------------------|
----------------------------------|----------------------------------|
--3-3-3-3-3-3-3-3-3-3-3-3-3-3-3-3-|--5-5-5-5-5-5-5-5-5-5-5-5-5-5-5-5-|


                                                                          
-------------------|------------------|----------------------------------|
-------------------|------------------|----------------------------------|
-------------------|------------------|----------------------------------|
-------------------|------------------|----------------------------------|
--4----------------|------------------|----------------------------------|
--2----------------|------------------|--0h2-2-2-2-2-2-2-0h2-2-2-2-2-2-2-|


                                                                     
---------------------------------|----------------------------------|
---------------------------------|----------------------------------|
---------------------------------|----------------------------------|
------------------5----4----2----|----------------------------------|
------------------3----2----0----|----------------------------------|
--0h2-2-2-2-2-2-2----------------|--2h4-4-4-4-4-4-4-2h4-4-4-4-4-4-4-|


                                                                     
---------------------------------|----------------------------------|
---------------------------------|----------------------------------|
---------------------------------|----------------------------------|
------------------7----6----4----|----------------------------------|
------------------5----4----2----|--0h2-2-2-2-2-2-2-0h2-2-2-2-2-2-2-|
--2h4-4-4-4-4-4-4----------------|----------------------------------|


                                                                      
----------------------------------|----------------------------------|
----------------------------------|----------------------------------|
----------------------------------|----------------------------------|
----------------------------------|----------------------------------|
--2h4-4-4-4-4-4-4-2h4-4-4-4-4-4-4-|--3h5-5-5-5-5-5-5-4h6-6-6-6-6-6-6-|
----------------------------------|----------------------------------|


                                                                      
----------------------------------|----------------------------------|
----------------------------------|----------------------------------|
----------------------------------|----------------------------------|
----------------------------------|----------------------------------|
--5h7-7-7-7-7-7-7-6h8-8-8-8-8-8-8-|----------------------------------|
----------------------------------|--0h2-2-2-2-2-2-2-2-2-2-2-2-2-2-2-|


                                                                     
---------------------------------|----------------------------------|
---------------------------------|----------------------------------|
---------------------------------|----------------------------------|
------------------2----2---------|----------------------------------|
------------------0----0----2----|----------------------------------|
--2-2-2-2-2-2-2-2-----------0----|--0h2-2-2-2-2-2-2-2-2-2-2-2-2-2-2-|


                                                                     
---------------------------------|----------------------------------|
---------------------------------|----------------------------------|
---------------------------------|----------------------------------|
------------------5----4----2----|----------------------------------|
------------------3----2----0----|----------------------------------|
--2-2-2-2-2-2-2-2----------------|--0h2-2-2-2-2-2-2-2-2-2-2-2-2-2-2-|


                                                                     
---------------------------------|----------------------------------|
---------------------------------|----------------------------------|
---------------------------------|----------------------------------|
------------------2----2---------|----------------------------------|
------------------0----0----2----|----------------------------------|
--2-2-2-2-2-2-2-2-----------0----|--0h2-2-2-2-2-2-2-2-2-2-2-2-2-2-2-|


                                                                     
---------------------------------|----------------------------------|
---------------------------------|----------------------------------|
---------------------------------|----------------------------------|
------------------5----4----2----|----------------------------------|
------------------3----2----0----|----------------------------------|
--2-2-2-2-2-2-2-2----------------|--0h2-2-2-2-2-2-2-2-2-2-2-2-2-2-2-|


                                                                     
---------------------------------|----------------------------------|
---------------------------------|----------------------------------|
---------------------------------|----------------------------------|
------------------2----2---------|----------------------------------|
------------------0----0----2----|----------------------------------|
--2-2-2-2-2-2-2-2-----------0----|--0h2-2-2-2-2-2-2-2-2-2-2-2-2-2-2-|


                                                                     
---------------------------------|----------------------------------|
---------------------------------|----------------------------------|
---------------------------------|----------------------------------|
------------------5----4----2----|----------------------------------|
------------------3----2----0----|----------------------------------|
--2-2-2-2-2-2-2-2----------------|--0h2-2-2-2-2-2-2-2-2-2-2-2-2-2-2-|


                                                                     
---------------------------------|----------------------------------|
---------------------------------|----------------------------------|
---------------------------------|----------------------------------|
------------------2----2---------|----------------------------------|
------------------0----0----2----|----------------------------------|
--2-2-2-2-2-2-2-2-----------0----|--0h2-2-2-2-2-2-2-2-2-2-2-2-2-2-2-|


                                                             
---------------------------------|--------------------------|
---------------------------------|--------------------------|
---------------------------------|--------------------------|
------------------5----4----2----|--5--------5----4----2----|
------------------3----2----0----|--3--------3----2----0----|
--2-2-2-2-2-2-2-2----------------|--------------------------|


                                                                  
--------------------------------|--------------------------------|
--------------------------------|--------------------------------|
--------------------------------|--------------------------------|
--------------------------------|--------------------------------|
-------2h3p2--------2h3p2h3p2---|-------2h3p2--------2h3p2h3p2---|
--2--2-------5-2--2-----------5-|--2--2-------5-2--2-----------5-|


                                                                  
--------------------------------|--------------------------------|
--------------------------------|--------------------------------|
--------------------------------|--------------------------------|
--------------------------------|--------------------------------|
-------2h3p2--------2h3p2h3p2---|-------2h3p2--------2h3p2h3p2---|
--2--2-------5-2--2-----------5-|--2--2-------5-2--2-----------5-|


                                                                  
--------------------------------|--------------------------------|
--------------------------------|--------------------------------|
--------------------------------|--------------------------------|
--------------------------------|--------------------------------|
-------2h3p2--------2h3p2h3p2---|-------2h3p2--------2h3p2h3p2---|
--2--2-------5-2--2-----------5-|--2--2-------5-2--2-----------5-|


                                                                  
--------------------------------|--------------------------------|
--------------------------------|--------------------------------|
--------------------------------|--------------------------------|
--------------------------------|--------------------------------|
-------2h3p2--------2h3p2h3p2---|-------2h3p2--------2h3p2h3p2---|
--2--2-------5-2--2-----------5-|--2--2-------5-2--2-----------5-|


                                                            
----------------------------------|------------------------|
----------------------------------|------------------------|
----------------------------------|------------------------|
----------------------------------|--3---2---5---4---2-----|
----------------------------------|--1---0---3---2---0--2--|
--3-3-3-3-3-3-3-3-3-3-3-3-3-3-3-3-|---------------------0--|		   
AcordesyTabs.com © 2008 Acordes y Tablaturas para guitarra. Tabs and Chords for guitar. Aviso Legal - Contacto
El uso de este sitio está sujeto a la aceptación de los términos y condiciones (21 usuarios online)