tablaturas, partituras y acordes para guitarra
Busca por banda/artista:
 
y/o título de la canción:
A B C D E F G H I J K L M N O P Q R S T U V W X Y Z 0 1 2 3 4 5 6 7 8 9 / Top 100 tabs
Categorías
Usuarios
usuario:
Darse de alta
password:
Artistas más visitados
Publicidad
TOP acordes y tablaturas de Megadeth


Estás en: Inicio > Letra M > Acordes y tablaturas de Megadeth > Burning bridges
Burning bridges
de Megadeth
Puntúa este acorde/tab:      
(0.1/5)
Reportar este acorde/tab
  Añadir a tus favoritos
  Imprimir
Guitarra I
                                                                      
E||----------3-----------|--------3------------|---------3-----------|
B||---5-----------5------|-------------5/-6/---|--5-----------5------|
G||*---------------------|---------------------|---------------------|
D||*---------------------|---------------------|---------------------|
A||----------------------|---------------------|---------------------|
E||----------------------|---------------------|---------------------|


                                                                   
---------3-----------|----------1-----------|--------1------------|
--5-----------5------|--5/-3---------3------|-------------3/-6/---|
---------------------|----------------------|---------------------|
---------------------|----------------------|---------------------|
---------------------|----------------------|---------------------|
---------------------|----------------------|---------------------|


                                                                    
---------3-----------|--------3-------------||---------3-----------|
--5-----------5------|-------------5/-6/----||--5-----------5------|
---------------------|---------------------*||---------------------|
---------------------|---------------------*||---------------------|
---------------------|----------------------||---------------------|
---------------------|----------------------||---------------------|


                                                                    
--------3-----------|------------||--------------------------------|
-------------5------|------------||--------------------------------|
--------------------|------------||*-------------------------------|
--------------------|------------||*-------------------------------|
--------------------|--2----2----||---2-2--2-2-2--2-2-2------------|
--------------------|--0----0----||---0-0--0-0-0--0-0-0--0-3-2-1-3-|


                                                                
-------------------------------|-------------------------------|
-------------------------------|-------------------------------|
-------------------------------|-------------------------------|
-------------------------------|-------------------------------|
--2-2--2-2-2--2-2-2------------|--2-2--2-2-2--2-2-2------------|
--0-0--0-0-0--0-0-0--0-3-2-1-3-|--0-0--0-0-0--0-0-0--0-3-2-1-3-|


                                                              
----------------------------||-------------------------------|
----------------------------||-------------------------------|
---------------------------*||*------------------------------|
----------------7----10----*||*--(b9)(b9)-(b9)(b9)(b9)-(b9)(b9)(b9)-(b9)(b9)(b9)-(b9)|
--2-2--2-2-2-x--5----8------||---7-7--7-7-7--7-7-7--7-7-7--7-|
--0-0--0-0-0-x--5----8------||---7-7--7-7-7--7-7-7--7-7-7--7-|


                                     3x                                  
-------------------------------------||---------------------------------|
-------------------------------------||---------------------------------|
------------------------------------*||*--------------------------------|
--10-10--10-10-10--10-7-7--7-8-8--8-*||*------4--------5------4-------5-|
--8--8---8--8--8---8--5-5--5-6-6--6--||---------------------------------|
--8--8---8--8--8---8--5-5--5-6-6--6--||---0h2---2--0h3----0h2---2-0h3---|


                                           
--------------------------------||--------|
--------------------------------||--------|
-------------------------------*||--------|
------4--------5------4-----2--*||--------|
----------------------------0---||--------|
--0h2---2--0h3----0h2---2-0-----||--------|


                                                                       3x
|-------------------------------------|--------------------------------||
|-------------------------------------|--------------------------------||
|*------------------------------------|-------------------------------*||
|*-----5-----7-------(b9)---(b9)10p(b9)-----|---8---8-9p8------7---7-9p7----*||
|---7----7(b9)--9/10----10--------10-9~|-----(b9)------(b9)8~---8-------8/--||
|-------------------------------------|--------------------------------||


                                                                  
---------------------------------|-------------------------------|
---------------------------------|-------------------------------|
---------------------------------|-------------------------------|
---4-5-0-4-----5-----------------|-------------------------------|
-----------2/3-------------0-----|--2-2--2-2-2--2-2-2------------|
-----------------3-2-0-2-3---3-2-|--0-0--0-0-0--0-0-0--0-3-2-1-3-|


                                                                
-------------------------------|-------------------------------|
-------------------------------|-------------------------------|
-------------------------------|-------------------------------|
-------------------------------|-------------------------------|
--2-2--2-2-2--2-2-2------------|--2-2--2-2-2--2-2-2------------|
--0-0--0-0-0--0-0-0--0-3-2-1-3-|--0-0--0-0-0--0-0-0--0-3-2-1-3-|


                                                            
---------------------------|-------------------------------|
---------------------------|-------------------------------|
---------------------------|-------------------------------|
----------------7----10----|-------------------------------|
--2-2--2-2-2-x--5----8-----|--2-2--2-2-2--2-2-2------------|
--0-0--0-0-0-x--5----8-----|--0-0--0-0-0--0-0-0--0-3-2-1-3-|


                                                                
-------------------------------|-------------------------------|
-------------------------------|-------------------------------|
-------------------------------|-------------------------------|
-------------------------------|-------------------------------|
--2-2--2-2-2--2-2-2------------|--2-2--2-2-2--2-2-2------------|
--0-0--0-0-0--0-0-0--0-3-2-1-3-|--0-0--0-0-0--0-0-0--0-3-2-1-3-|


                                                             
---------------------------||-------------------------------|
---------------------------||-------------------------------|
---------------------------||*------------------------------|
----------------7----10----||*--(b9)(b9)-(b9)(b9)(b9)-(b9)(b9)(b9)-(b9)(b9)(b9)-(b9)|
--2-2--2-2-2-x--5----8-----||---7-7--7-7-7--7-7-7--7-7-7--7-|
--0-0--0-0-0-x--5----8-----||---7-7--7-7-7--7-7-7--7-7-7--7-|


                                     3x                                  
-------------------------------------||---------------------------------|
-------------------------------------||---------------------------------|
------------------------------------*||*--------------------------------|
--10-10--10-10-10--10-7-7--7-8-8--8-*||*------4--------5------4-------5-|
--8--8---8--8--8---8--5-5--5-6-6--6--||---------------------------------|
--8--8---8--8--8---8--5-5--5-6-6--6--||---0h2---2--0h3----0h2---2-0h3---|


                                           
--------------------------------||--------|
--------------------------------||--------|
-------------------------------*||--------|
------4--------5------4-----2--*||--------|
----------------------------0---||--------|
--0h2---2--0h3----0h2---2-0-----||--------|


                                                                       3x
|-------------------------------------|--------------------------------||
|-------------------------------------|--------------------------------||
|*------------------------------------|-------------------------------*||
|*-----5-----7-------(b9)---(b9)10p(b9)-----|---8---8-9p8------7---7-9p7----*||
|---7----7(b9)--9/10----10--------10-9~|-----(b9)------(b9)8~---8-------8/--||
|-------------------------------------|--------------------------------||


                                                                              
---------------------------------||----------------------------8-7----7------|
---------------------------------||---7---8-7~-----7-8-10-8-10-----10---10-8-|
---------------------------------||*--4---5-4~---(b9)--------------------------|
---4-5-0-4-----5-----------------||*-----------------------------------------|
-----------2/3-------------0-----||------------------------------------------|
-----------------3-2-0-2-3---3-2-||------------------------------------------|


                                           
-------------0-8p7----7-------------------|
--7---8-7~---------10---10-8-10-8-7-8-7---|
--8---(b9)8~------------------------------(b9)|
------------------------------------------|
------------------------------------------|
------------------------------------------|


                                                     
--------------0-12p11----11-------------------------|
----------------------13----13-12-13-12-10-12-10----|
--8---(b9)-8~--------------------------------------12-|
--(b9)--10-9~-----------------------------------------|
----------------------------------------------------|
----------------------------------------------------|


                                                                   
-----------------------------------------------------------------||
--12p10----10----------------------------------------------------||
--------12----12-11-12-11-(b9)11-(b9)8-11-(b9)8-(b9)8----8--------------*||
----------------------------------------------10---10-(b9)10-(b9)---*||
-------------------------------------------------------------12--||
-----------------------------------------------------------------||


                                                   
--------------------------------------------------|
--------------------------------------------------|
--------------------------------------------------|
--------------------------------------------------|
--------------------------------------------------|
--2-2-2-2-2-2-2-2-2-2-2-2-2-2-2-2-2-2-2-2-2-2-2-2-|


                                                   
--------------------------------------------------|
--------------------------------------------------|
--------------------------------------------------|
--------------------------------------------------|
--------------------------------------------------|
--3-3-3-3-3-3-3-3-3-3-3-3-0-0-0-0-0-0-1-1-1-1-1-1-|


                                                   
--------------------------------------------------|
--------------------------------------------------|
--------------------------------------------------|
--------------------------------------------------|
--------------------------------------------------|
--2-2-2-2-2-2-2-2-2-2-2-2-2-2-2-2-2-2-2-2-2-2-2-2-|


                                                   
--------------------------------------------------|
--------------------------------------------------|
--------------------------------------------------|
--------------------------------------------------|
--------------------------------------------------|
--3-3-3-3-3-3-3-3-3-3-3-3-0-0-0-0-0-0-1-1-1-1-1-1-|


                                                   
--------------------------------------------------|
--------------------------------------------------|
--------------------------------------------------|
--------------------------------------------------|
--------------------------------------------------|
--2-2-2-2-2-2-2-2-2-2-2-2-2-2-2-2-2-2-2-2-2-2-2-2-|


                                                   
--------------------------------------------------|
--------------------------------------------------|
--------------------------------------------------|
--------------------------------------------------|
--------------------------------------------------|
--3-3-3-3-3-3-3-3-3-3-3-3-0-0-0-0-0-0-1-1-1-1-1-1-|


                                                   
--------------------------------------------------|
--------------------------------------------------|
--------------------------------------------------|
--------------------------------------------------|
--------------------------------------------------|
--2-2-2-2-2-2-2-2-2-2-2-2-2-2-2-2-2-2-2-2-2-2-2-2-|


                                                   
--------------------------------------------------|
--------------------------------------------------|
--------------------------------------------------|
--------------------------------------------------|
--------------------------------------------------|
--3-3-3-3-3-3-3-3-3-3-3-3-0-0-0-0-0-0-1-1-1-1-1-1-|


                                                                     
------------------------------------|-------------------------------|
------------------------------------|-------------------------------|
------------------------------------|-------------------------------|
-----5-----7-------(b9)---(b9)10p(b9)-----|---8---8-9p8------7---7-9p7----|
--7----7(b9)--9/10----10--------10-9~|-----(b9)------(b9)8~---8-------8/-|
------------------------------------|-------------------------------|


                                                                       6x
|-------------------------------------|--------------------------------||
|-------------------------------------|--------------------------------||
|*------------------------------------|-------------------------------*||
|*-----5-----7-------(b9)---(b9)10p(b9)-----|---8---8-9p8------7---7-9p7----*||
|---7----7(b9)--9/10----10--------10-9~|-----(b9)------(b9)8~---8-------8/--||
|-------------------------------------|--------------------------------||


                                                                          
---------------------------------|-------------------|------------------||
---------------------------------|-------------------|------------------||
---------------------------------|-------------------|------------------||
---4-5-0-4-----5-----------------|--2----------------|------------------||
-----------2/3-------------0-----|--2----------------|------------------||
-----------------3-2-0-2-3---3-2-|--0----------------|------------------||		   
AcordesyTabs.com © 2008 Acordes y Tablaturas para guitarra. Tabs and Chords for guitar. Aviso Legal - Contacto
El uso de este sitio está sujeto a la aceptación de los términos y condiciones (24 usuarios online)